PrimaNota.ru - самый крупный в мире бесплатный архив песенных текстов, аккордов, табулатур и нот


Heathen - Open The Grave - таба, видео

Регистрация Запомнить меня
Войти через:  Facebook Google Twitter Vk Yandex Mail.ru

Heathen - Open The Grave - таба, видео

Печатать
Просмотров: 141
                               HEATHEN
                           [Open the Grave]
                         Breaking the Silence

(Intro)(2x)

. palm mute
> let string ring for a sec
/ slide
* important note



|----------------------------------------------------------------------|
|----------------------------------------------------------------------|
|----------------------------------------------------------------------|
|--------9-----10---------9-----109-------9-----10---------5--7--------|
|--------7-----8----------7-----8-7-------7-----8----------3--5--------|
|-0-0-0----0-0----0-0-0-----0-0-----0-0-0---0-0----0-0-0---------0-0-0-|
  . . .    . .    . . .     . .     . . .   . .    . . .         . . .

|-----------------------------------------------------------------------|
|-----------------------------------------------------------------------|
|-----------------------------------------------------------------------|
|--------9-----10---------9-----10/9------9-----10----------------------|
|--------7-----8----------7-----8/7-------7-----8-----------5--3--------|
|----------0-0----0-0-0-----0-0-----0-0-0---0-0----0-0-0----3--1--------|
           . .    . . .     . .     . . .   . .    . . .                     
                       



(verse)(2x)


|-------------------------------------------------------------------------|
|-------------------------------------------------------------------------|
|-------------------------------------------------------------------------|
|-------9-----10-----------------------9-----10-------555--7777--10-9-----|
|-------7-----8------------------------7-----8--------333--5555--8--7-----|
|-0-0-0---0-0----0-0-0-0-0-0-0-0-0-0-0---0-0----0-0-0---------------------|
  . . .   . .    . . . . . . . . . . .   . .    . . .

|----------------------------------------------------------------------|
|----------------------------------------------------------------------|
|----------------------------------------------------------------------|
|-------10-------------------------9-----10----------------------------|
|-------8--------------------------7-----8----------5-3--5-2-----------|
|-0-0-0------0-0-0-0-0-0-0-0-0-0-0---0-0----0-0-0---3-1--3-0-----------|
  . . .      . . . . . . . . . . .   . .    . . .        .

(Chorus)(3x)

|---------------------------------------------------------------|
|---------------------------------------------------------------|
|---------------------------------------------------------------|
|-2---------------10------------4---------------------55-3------|
|-0--0-0--3-2-0---8--8-8-8-8-8--2--2-2-2-2-2-2-2-2-2--33-1------|
|---------------------------------------------------------------|
     . .                                              .. .
                                                      
  *then this part after you've played the chorus (4x)
|----------------------------------------------------------------------
|----------------------------------------------------------------------
|----------------------------------------------------------------------
|-2---------------10-----------5---------------------------------------
|-0--0-0--3-2-0---8--8-8-8-8-8-3--2>--2-2h3p2p0------------------------
|----------------------------------------------3-3-3-------------------
     . .                                       . . .           

|-------------------------|                                                      
|-------------------------| 
|-------------------------|
|-------------------------|
|--2>--2-2h3p2p0----------|
|---------------3-3-3-----|
                . . . 

|-------------------------|                                                      
|-------------------------| 
|-------------------------|
|---------------------2---|
|--2>-2-2h3p2p0-------2---|
|--------------3-2-0--0---|
               . . .

THATS ALL I KNOW FOR NOW!!!!!!!!!!!!!!!!!!!!!
       


               
Добавлено: 15.03.2012
Вам также может быть интересно:
Другие материалы по этой песне:
  • Аккорды и текст

Страница создана 15.03.2012
http://primanota.ru/heathen/open-the-grave-chords.htm
Привет, Гость.
Предлагаем пройти революционный курс по гитаре.
Подарок от PrimaNota.Ru, забирай!