PrimaNota.ru - самый крупный в мире бесплатный архив песенных текстов, аккордов, табулатур и нот


Heathen - Morbid Curiosity - текст песни, таба, видео

Регистрация Запомнить меня
Войти через:  Facebook Google Twitter Vk Yandex Mail.ru

Heathen - Morbid Curiosity - текст песни, таба, видео

Печатать
Просмотров: 228
Band:  Heathen
Album: Victims Of Deception
Song:  Morbid Curiosity

Copyright (c)  Roadrunner (1991)
Version 1.0 - 29/3/2007

Transcribed By: Ryan
Email:          ryanhidrio@hotmail.com

* Originally tabbed for www.metaltabs.com *


.  - palm mute           /  - slide up to
\  - slide down to       ~  - vibrato
h  - hammer on           b  - Bend
p  - pull off            Suffixes for bend
t  - tap                 f  - full bend    h - half bend
ph - pinched harmonic    q  - quarter bend t - tap bend
*  - see comment         ^  - Hold bend    r release bend
x  - Staccato            ~  - vibrato bend
,  - slight palm mute    () - ghost note, sustained note
"  - tremolo note        tr - Trill



Tuning E A D G B E



0:03
|----------------------------------|
|----------------------------------|
|----------------------------------|
|-------------------------33332222-|
|---------3333000044443333---------|
|-11110000-------------------------|
  ................................  


0:06                      
|-----------------------------------------------------------------|
|-----------------------------------------------------------------|
|-----------------------------------------------------------------|
|-8-------8--7--5-2----------0--2-8-------8--7--5-2---------------|
|-8-------8--7--5-2--------p-0--2-8-------8--7--5-2---------------|
|---000000----------00000-300-------000000----------00000-0-00000-|
    ......          ..... ...       ......          ..... . .....


|-----------------------------------------------------------------|
|-----------------------------------------------------------------|
|-----------------------------------------------------------------|
|-8-------8--7--5-2----------0--2-8-------10-9--7-9---------------|
|-8-------8--7--5-2--------p-0--2-8-------8--7--5-7---------------|
|---000000----------00000-300-------0000008--7--5-7---------------|   x2
    ......          ..... ...       ......


0:28
|-----------------------------------------------------------------|
|-----------------------------------------------------------------|
|-----------------------------------------------------------------|
|------------------h------2---2--------------------h----------2---|
|-----------------24------2---2-------------------57------6---2---|
|-0-22222-2-2-222---22222-------0-0-22222-2-2-222---55555-4-----0-|
  . ..... . . ...   .....       . . ..... . . ...   .....       .

                                                                    4th
|-----------------------------------------------------------------|-----|
|-----------------------------------------------------------------|-----|
|-----------------------------------------------------------------|-----| 
|------------------h------2---2-------------------5-4-----4-3-----|-----|
|-----------------24------2---2-------------------3-2-----2-1-----|-----|
|-0-22222-2-2-222---22222-------0-0-22222-2-2-222-----000-----0-0-|-3-0-|  x4
  . ..... . . ...   .....       . . ..... . . ...     ...     . .   . .


1:13
|-----------------------------------------------------------------|
|-----------------------------------------------------------------|
|-----------------------------------------------------------------|
|-7---------------6---------------4---------------4---------------|
|-5-----------5-4-4-----------2-4-2-----------5-2-4-----------2-4-|
|-5-----------5-4-4-----------2-4-2-----------3-0-2-----------0-2-|
              . .             . .             . .             . .


|-----------------------------------------------------------------|
|-----------------------------------------------------------------|
|-5---------------2-----------------------------------------------|
|-5-----------5-2-2---------------2---------------4---------------|
|-3-----------3-0-0-----------5-4-2-----------5-2-4---------------|
|-----------------------------3-2-0-----------3-0-2------11110000-|
              . .             . .             . .        ........
 


Repeat part - 0:06   x1
Repeat part - 0:28   x2



1:58
|-----------------------------------------------------------------|
|-----------------------------------------------------------------|
|-----------------------------------------------------------------|
|-7---------------6---------------4---------------4---------------|
|-5-----------5-4-4-----------2-4-2-----------5-2-4-----------2-4-|
|-5-----------5-4-4-----------2-4-2-----------3-0-2-----------0-2-|
              . .             . .             . .             . .


|-----------------------------------------------------------------|
|-----------------------------------------------------------------|
|-5---------------2-----------------------------------------------|
|-5-----------5-2-2---------------2---------------4---------------|
|-3-----------3-0-0-----------5-4-2-----------5-2-4-----------0-2-|
|-----------------------------3-2-0-----------3-0-2-----------0-2-|   x2
              . .             . .             . .             . .


2:19

Same as above but different timing. Listen.   x2



2:27  (Harmonising part) - played with 2:19



2:35
|---------------------------------------------------------|
|---------------------------------------------------------|
|---------------------------------------------------------|
|---------------------------------------------------------|
|-4-------5---4-------5---4---------------5---6---7-------|
|-2-2-2-2-3-0-2-2-2-2-3-0-2-2-2-2-2-2-2-2-3-3-4-4-5-------|
    . . .   .   . . .   .   . . . . . . . . . . . 


2:40
|-----------------------------------------------------------------|
|-----------------------------------------------------------------|
|-----------------------------------------------------------------|
|-----------------------------------------------------------------|
|-7/8-----8/7-----7/8-----8/7-----7/8---8/7---7/5---5/3---2-------|
|-5/6-6-6-6/5-5-5-5/6-6-6-6/5-5-5-5/6---6/5---5/3---3/1---0-0-0-0-|   x4
      . .     . .     . .     . .                           . . .


3:01  (Under solo)
|-----------------------------------------------------------------|
|-----------------------------------------------------------------|
|-----------------------------------------------------------------|
|---------------------------------4p2-----------------------------|
|-------------------------4p2-------------4p2-------------5-------|
|-2-2-2-2-3p2-2-2-5p2-2-2-----2-2-----2-2-----2-2-5p2-2-2-3-0-0-0-|
  . . . .     . .     . .     . .     . .     . .     . .   . . .


|-----------------------------------------------------------------|
|-----------------------------------------------------------------|
|-----------------------------------------------------------------|
|---------------------------------4p2-----------------------------|
|-------------------------4p2-------------4p2-------------5-4-2-4-|
|-2-2-2-2-3p2-2-2-5p2-2-2-----2-2-----2-2-----2-2-5p2-2-0-3-2-0-2-|
  . . . .     . .     . .     . .     . .     . .     . . . . . .


|-----------------------------------------------------------------|
|-----------------------------------------------------------------|
|-----------------------------------------------------------------|
|---------------------------------5p3-----------------------------|
|-5-----------------------5p3-------------5p3-------------7-8-7-5-|
|-3-3-3-3-5p3-3-3-6p3-3-3-----3-3-----3-3-----3-3-6p3-3-0-5-6-5-3-|
    . . .     . .     . .     . .     . .     . .     . . . . . .


|-----------------------------------------------------------------|
|-----------------------------------------------------------------|
|-----------------------------------------------------------------|
|---------------------------------2p0-----------------------------|
|-2-----------------------2p0-------------2p0-------------3---5---|
|-0-0-0-0-1p0-0-0-3p0-0-0-----0-0-----0-0-----0-0-3p0-0-0-1-0-3-0-|   x2
    . . .     . .     . .     . .     . .     . .     . . . . . .



3:44  (Under solo)
|-----------------------------------------------------------------|
|-----------------------------------------------------------------|
|-----------------------------------------------------------------|
|---------------------------------4-------------------------------|
|-4-----------------------4---------------4---------------5-------|
|-2-22222-3-22222-5-22222---22222---22222---22222-5-22222-3-00000-|
  . ..... . ..... . ..... . ..... . ..... . ..... . ..... . .....


|-----------------------------------------------------------------|
|-----------------------------------------------------------------|
|-----------------------------------------------------------------|
|---------------------------------4-------------------------------|
|-4-----------------------4---------------4---------------5-4-2-4-|
|-2-22222-3-22222-5-22222---22222---22222---22222-5-22220-3-2-0-2-|
  . ..... . ..... . ..... . ..... . ..... . ..... . ..... . . . .


|-----------------------------------------------------------------|
|-----------------------------------------------------------------|
|-----------------------------------------------------------------|
|---------------------------------5-------------------------------|
|-5-----------------------5---------------5---------------7-8-7-5-|
|-3-33333-5-33333-6-33333---33333---33333---33333-6-33330-5-6-5-3-|
  . ..... . ..... . ..... . ..... . ..... . ..... . ..... . . . . 



|-----------------------------------------------------------------|
|-----------------------------------------------------------------|
|-----------------------------------------------------------------|
|---------------------------------2-------------------------------|
|-2-----------------------2---------------2---------------3---5---|
|-0-00000-1-00000-3-00000---00000---00000---00000-3-00000-1-0-3-0-|   x2
  . ..... . ..... . ..... . ..... . ..... . ..... . ..... . . . .



4:27  (Under solo)
|-----------------------------------------------------------------|
|-----------------------------------------------------------------|
|-----------------------------------------------------------------|
|-4-------------------------------7-------------------------------|
|-4---------------------------2-4-5-------------------------------|
|-2---------------------------0-2-5-------------------------------|
                              . .


|-----------------------------------------------------------------|
|-----------------------------------------------------------------|
|-----------------------------------------------------------------|
|-4-------------------------------7---------------5---------------|
|-2---------------------------2-4-5---------------5------\\pick\\-|
|-2---------------------------2-4-5---------------3------\scrape\-|
                              . .


|-----------------------------------------------------------------|
|-----------------------------------------------------------------|
|-----------------------------------------------------------------|
|-4-------------------------------7-------------------------------|
|-4---------------------------2-4-5-------------------------------|
|-2---------------------------0-2-5-------------------------------|
                              . .


|-----------------------------------------------------------------|
|-----------------------------------------------------------------|
|-----------------------------------------------------------------|
|-4-------------------------------7---------------5---------------|
|-2---------------------------2-4-5---------------5---------------|
|-2---------------------------2-4-5---------------3---------------|
                              . .
 

Repeat part - 0:06   x2
Repeat part - 0:28   x2
Repeat part - 1:58   x3



6:04
|-----------------------------------------------------------------|
|-----------------------------------------------------------------|
|-----------------------------------------------------------------|
|-7---------------6---------------4---------------4---------------|
|-5-----------5-4-4-----------2-4-2-----------5-2-4-----------2-4-|
|-5-----------5-4-4-----------2-4-2-----------3-0-2-----------0-2-|
              . .             . .             . .             . .


|-----------------------------------------------------------------|
|-----------------------------------------------------------------|
|-5---------------2-----------------------------------------------|
|-5-----------5-2-2---------------2---------------4---------------|
|-3-----------3-0-0-----------5-4-2-------5--4--2-4---------------|
|-----------------------------3-2-0-------3--2--0-2---------------| 
              . .             . .         .  .  . 


6:23
|--------------|
|--------------|
|--------------|
|--------------|
|-4--//////----|
|-2--//////----|

 
END   
Добавлено: 21.05.2012
Другие материалы по этой песне:
  • Аккорды и текст

Страница создана 21.05.2012
http://primanota.ru/heathen/morbid-curiosity-chords.htm
Привет, Гость.
Предлагаем пройти революционный курс по гитаре.
Подарок от PrimaNota.Ru, забирай!