PrimaNota.ru - самый крупный в мире бесплатный архив песенных текстов, аккордов, табулатур и нот


Heathen - Hypnotized - текст песни, таба, видео

Регистрация Запомнить меня
Войти через:  Facebook Google Twitter Vk Yandex Mail.ru

Heathen - Hypnotized - текст песни, таба, видео

Печатать
Просмотров: 139
Авторы: Dave White, Lee Altus

As recorded by Heathen
(From the 1991 Album VICTIMS OF DECEPTION)


Transcribed by rhamnes

 Words by Dave White Music by Lee Altus

 

Gtr I (E A D G B E) - 'Rhythm (distortion)'
Gtr II (E A D G B E) - 'Rhythm (clean)'
Gtr III (E A D G B E) - 'Rhythm (clean)'
Gtr IV (E A D G B E) - 'Lead (distortion)'
Gtr V (E A D G B E) - 'Lead 2 (distortion)'
Gtr VI (E A D G B E) - 'Rhythm 2 (distortion)'


  Q=80
 4/4
  Gtrs I, VI
                                PM|                                 PM|
  H..                           S S   H..                           S S
|-----------------------------------|------------------------------------|
|-----------------------------------|------------------------------------|
|-----------------------------------|------------------------------------|
|-2-----------------------------4-3-|-2-----------------------------7-6--|
|-2-----------------------------2-1-|-2-----------------------------5-4--|
|-0---------------------------------|-0----------------------------------|
|
| Gtr II
| S   S S S S S S S S S S S S S S S   S   S S S S S S S S S S S S S S S
|-7---------7-------6-------6-------|-7---------7-------6-------6--------|
|-----8---8---8---8---8---8---8---8-|-----8---8---8---8---8---8---8---8--|
|-------9-------9-------9-------9---|-------9-------9-------9-------9----|
|-----------------------------------|------------------------------------|
|-----------------------------------|------------------------------------|
|-----------------------------------|------------------------------------|


                                             PM|
   H..                                       S  S
|-------------------------------------------------|
|-------------------------------------------------|
|-------------------------------------------------|
|--5-----------------------------------------7--6-|
|--5-----------------------------------------5--4-|
|--3----------------------------------------------|
|
|  S    S  S  S  S  S  S  S S  S  S  S S  S  S  S
|-10------------10----------9----------9----------|
|------11----11----11----11---11----11---11----11-|
|---------12----------12---------12---------12----|
|-------------------------------------------------|
|-------------------------------------------------|
|-------------------------------------------------|


                                             PM|
   H..                                       S  S
|-------------------------------------------------|
|-------------------------------------------------|
|-------------------------------------------------|
|--5-----------------------------------------4--3-|
|--5-----------------------------------------2--1-|
|--3----------------------------------------------|
|
|  S    S  S  S  S  S  S  S S  S  S  S S  S  S  S
|-10------------10----------9----------9----------|
|------11----11----11----11---11----11---11----11-|
|---------12----------12---------12---------12----|
|-------------------------------------------------|
|-------------------------------------------------|
|-------------------------------------------------|


                                PM|                                 PM|
  H..                           S S   H..                           S S
|-----------------------------------|-----------------------------------|
|-----------------------------------|-----------------------------------|
|-----------------------------------|-----------------------------------|
|-2-----------------------------4-3-|-2-----------------------------7-6-|
|-2-----------------------------2-1-|-2-----------------------------5-4-|
|-0---------------------------------|-0---------------------------------|
|
| S   S S S S S S S S S S S S S S S   S   S S S S S S S S S S S S S S S
|-7---------7-------6-------6-------|-7---------7-------6-------6-------|
|-----8---8---8---8---8---8---8---8-|-----8---8---8---8---8---8---8---8-|
|-------9-------9-------9-------9---|-------9-------9-------9-------9---|
|-----------------------------------|-----------------------------------|
|-----------------------------------|-----------------------------------|
|-----------------------------------|-----------------------------------|


                                             PM|
   H..                                       S  S
|-------------------------------------------------|
|-------------------------------------------------|
|-------------------------------------------------|
|--5-----------------------------------------7--6-|
|--5-----------------------------------------5--4-|
|--3----------------------------------------------|
|
|  S    S  S  S  S  S  S  S S  S  S  S S  S  S  S
|-10------------10----------9----------9----------|
|------11----11----11----11---11----11---11----11-|
|---------12----------12---------12---------12----|
|-------------------------------------------------|
|-------------------------------------------------|
|-------------------------------------------------|


   W
|-----------------------------------------------|
|-----------------------------------------------|
|-----------------------------------------------|
|--5--------------------------------------------|
|--5--------------------------------------------|
|--3--------------------------------------------|
|
|  S  S  S  S  S  S  S  S S  S  S  S S  S  S  S
|-10----------10----------9----------9----------|
|----11----11----11----11---11----11---11----11-|
|-------12----------12---------12---------12----|
|-----------------------------------------------|
|-----------------------------------------------|
|-----------------------------------------------|


   E     E     Q           H
|-------------------------------------------------|
|-------------------------------------------------|
|-------------------------------------------------|
|--6----------------------------------------------|
|--4----------------------------------------------|
|-------------------------------------------------|
|
|  S  S  S  S  S  S  S  S  S  S  S  S  S  S  S  S
|-16----------13----------10-----------7----------|
|----17----17----14----14----11----11-----8-----8-|
|-------18----------15----------12-----------9----|
|-------------------------------------------------|
|-------------------------------------------------|
|-------------------------------------------------|
|
| Gtr III
|  S  S  S  S  S  S  S  S  S  S  S  S  S  S  S  S
|-19----------16----------13----------10----------|
|----20----20----17----17----14----14----11----11-|
|-------21----------18----------15----------12----|
|-------------------------------------------------|
|-------------------------------------------------|
|-------------------------------------------------|


  W
|---------------------------------|
|---------------------------------|
|---------------------------------|
|-2-------------------------------|
|-2-------------------------------|
|-0-------------------------------|
|
| S S S S S S S S S S S S S S S S
|-7-------7-------6-------6-------|
|---8---8---8---8---8---8---8---8-|
|-----9-------9-------9-------9---|
|---------------------------------|
|---------------------------------|
|---------------------------------|
|
| W
|---------------------------------|
|---------------------------------|
|---------------------------------|
|---------------------------------|
|---------------------------------|
|---------------------------------|


   E     E     Q           H
|-------------------------------------------------|
|-------------------------------------------------|
|-------------------------------------------------|
|--6----------------------------------------------|
|--4----------------------------------------------|
|-------------------------------------------------|
|
|  S  S  S  S  S  S  S  S  S  S  S  S  S  S  S  S
|-16----------13----------10-----------7----------|
|----17----17----14----14----11----11-----8-----8-|
|-------18----------15----------12-----------9----|
|-------------------------------------------------|
|-------------------------------------------------|
|-------------------------------------------------|
|
|  S  S  S  S  S  S  S  S  S  S  S  S  S  S  S  S
|-19----------16----------13----------10----------|
|----20----20----17----17----14----14----11----11-|
|-------21----------18----------15----------12----|
|-------------------------------------------------|
|-------------------------------------------------|
|-------------------------------------------------|


  >
  W                                  +W
|----------------------------------|-----------------------------------|
|----------------------------------|-----------------------------------|
|----------------------------------|-----------------------------------|
|-2--------------------------------|-(2)-------------------------------|
|-2--------------------------------|-(2)-------------------------------|
|-0--------------------------------|-(0)-------------------------------|
|
| S S S S S S S S S S S S  S S S S    S  S S S S S S S S S S S S S S S
|-7-------7-------8-------10-------|--7--------7-------8-------8-------|
|---8---8---8---8---8---8----8---8-|-----8---8---8---8---8---8---8---8-|
|-----9-------9-------9--------9---|-------9-------9-------9-------9---|
|----------------------------------|-----------------------------------|
|----------------------------------|-----------------------------------|
|----------------------------------|-----------------------------------|
|
| W                                   W
|----------------------------------|-----------------------------------|
|----------------------------------|-----------------------------------|
|----------------------------------|-----------------------------------|
|----------------------------------|-----------------------------------|
|----------------------------------|-----------------------------------|
|----------------------------------|-----------------------------------|


  +W                                   +W
|------------------------------------|-----------------------------------|
|------------------------------------|-----------------------------------|
|------------------------------------|-----------------------------------|
|-(2)--------------------------------|-(2)-------------------------------|
|-(2)--------------------------------|-(2)-------------------------------|
|-(0)--------------------------------|-(0)-------------------------------|
|
|  S  S S S S S S S S S S S  S S S S    S  S S S S S S S S S S S S S S S
|--7--------7-------8-------10-------|--7--------7-------8-------8-------|
|-----8---8---8---8---8---8----8---8-|-----8---8---8---8---8---8---8---8-|
|-------9-------9-------9--------9---|-------9-------9-------9-------9---|
|------------------------------------|-----------------------------------|
|------------------------------------|-----------------------------------|
|------------------------------------|-----------------------------------|
|
| Gtr IV
|  W                                    H                Q       E   E
|------------------------------------|-----------------------------------|
|------------------------------------|-------------------------------3S==|
|------------------------------------|-------------------------------4S==|
|------------------------------------|-----------------------------------|
|------------------------------------|-----------------------------------|
|------------------------------------|-----------------------------------|


  +W
|------------------------------------------|
|------------------------------------------|
|------------------------------------------|
|-(2)--------------------------------------|
|-(2)--------------------------------------|
|-(0)--------------------------------------|
|
|  S  S S S S S S S  S  S S  S   S  S  S S
|--7--------7--------8----------10---------|
|-----8---8---8---8-----8----8------8----8-|
|-------9-------9---------9------------9---|
|------------------------------------------|
|------------------------------------------|
|------------------------------------------|
|
|  ~~~
|  H                 E.      S  +E     E
|------------------------------------------|
|--8----------------12------15-(15)---14---|
|--9----------------12------16-(16)---14---|
|------------------------------------------|
|------------------------------------------|
|------------------------------------------|


  +W
|------------------------------------------|
|------------------------------------------|
|------------------------------------------|
|-(2)--------------------------------------|
|-(2)--------------------------------------|
|-(0)--------------------------------------|
|
|  S  S S S S S S S  S  S S  S   S  S  S S
|--7--------7--------8-----------8---------|
|-----8---8---8---8-----8----8------8----8-|
|-------9-------9---------9------------9---|
|------------------------------------------|
|------------------------------------------|
|------------------------------------------|
|
|  ~~~
|  H                 E.      S  +E     E
|-15----------------19------17-(17)---14---|
|-17----------------20------19-(19)---15---|
|------------------------------------------|
|------------------------------------------|
|------------------------------------------|
|------------------------------------------|


  +W
|--------------------------------------------------|
|--------------------------------------------------|
|--------------------------------------------------|
|-(2)----------------------------------------------|
|-(2)----------------------------------------------|
|-(0)----------------------------------------------|
|
|  S  S S S  S S S S  S  S  S        S  S  S  S  S
|--7---------7--------8----------------10----------|
|-----8---8----8---8-----8-----------8-----8-----8-|
|-------9--------9----------9-----------------9----|
|--------------------------------------------------|
|--------------------------------------------------|
|--------------------------------------------------|
|
|                           |--3--|
|  Q         Q        S  S  T  T  T  S  S  S  S  S
|-15--------10-------10-12-10h12p10----10----------|
|-17--------12-------12-13-12h13p12-13-12-13-12-10-|
|-----------------------------------14----14-12-11-|
|--------------------------------------------------|
|--------------------------------------------------|
|--------------------------------------------------|


                                 PM|
  +H..                           S S
|------------------------------------|
|------------------------------------|
|------------------------------------|
|-(2)--------------------------------|
|-(2)--------------------------------|
|-(0)----------------------------0-0-|
|
|  S   S S S S S S S S S S S S S S S
|--7---------7-------8-------8-------|
|------8---8---8---8---8---8---8---8-|
|--------9-------9-------9-------9---|
|------------------------------------|
|------------------------------------|
|------------------------------------|
|
|  W
|------------------------------------|
|--8---------------------------------|
|--9---------------------------------|
|------------------------------------|
|------------------------------------|
|------------------------------------|


  Gtrs I, VI
       PM|   PM|   PM|        PM|    PM----|
  Q.   S S E S S E S S   Q.   S S Q  S S S S
|----------------------|---------------------|
|----------------------|---------------------|
|----------------------|---------------------|
|----------------------|---------------------|
|-2--------3-----5-----|-2--------3--3-3-----|
|-2----0-0-3-0-0-5-0-0-|-2----0-0-3------0-0-|


       PM|   PM|   PM|        PM|    PM----|
  Q.   S S E S S E S S   Q.   S S Q  S S S S
|----------------------|---------------------|
|----------------------|---------------------|
|----------------------|---------------------|
|----------------------|---------------------|
|-2--------3-----5-----|-2--------3--3-3-----|
|-2----0-0-3-0-0-5-0-0-|-2----0-0-3------0-0-|


       PM|   PM|    PM|        PM|      PM----|
  Q.   S S E S S  E S S   Q.   S S  Q   S S S S
|-----------------------|-----------------------|
|-----------------------|-----------------------|
|-----------------------|-----------------------|
|-----------------------|-----------------------|
|-2--------3------5-----|-2---------3---3-3-----|
|-2----0-0-3-0-0--5-0-0-|-2----0-0--3-------0-0-|
|
| Gtr IV
| H        Q      Q       H         E E E   E
|-----------------------|-----------------------|
|-----------------------|-----------------------|
|-----------------------|---------------9---8---|
|-----------------------|----------10-9---------|
|-6--------7-----10-----|-9---------------------|
|-----------------------|-----------------------|


       PM|    PM|    PM|        PM|        PM-----|
  Q.   S S  E S S  E S S   Q.   S S  Q     S S  S S
|------------------------|--------------------------|
|------------------------|--------------------------|
|------------------------|--------------------------|
|------------------------|--------------------------|
|-2---------3------5-----|-2---------3-----3-3------|
|-2----0-0--3-0-0--5-0-0-|-2----0-0--3----------0-0-|
|
| H         Q      Q       H         E  E  E    E
|------------------------|--------------------------|
|------------------------|----------------13---12---|
|------------------9-----|-8--------12-11--9----8---|
|-9--------10------------|----------10--9-----------|
|-6---------7-----10-----|-9------------------------|
|------------------------|--------------------------|


                               PM---|              PM---|              PM---|
   Q.                          S    S     E        S    S     E        S    S
|--------------------------------------------------------------------------------|
|--------------------------------------------------------------------------------|
|--------------------------------------------------------------------------------|
|--------------------------------------------------------------------------------|
|--2--------------------------------------3-------------------5------------------|
|--2---------------------------0----0-----3--------0----0-----5--------0----0----|
|
|  H                                      Q                   Q
|--------------------------------------------------------------------------------|
|--------------------------------------------------------------------------------|
|-------------------------------------------------------------9------------------|
|--9-------------------------------------10--------------------------------------|
|--6--------------------------------------7------------------10------------------|
|--------------------------------------------------------------------------------|
|
| Gtr V
|  |-------6-------|  |-------6--------|  |-------6--------|  |-------6--------|
|  S   S  S  S  S  S  S  S  S  S  S    S  S  S  S  S  S    S  S  S  S  S  S    S
|--------14-19p14----------14-19p14------------15-20p15------------17-22p17------|
|-----15----------15----15------------15----17------------17----19------------19-|
|-16-----------------16------------------17------------------19------------------|
|--------------------------------------------------------------------------------|
|--------------------------------------------------------------------------------|
|--------------------------------------------------------------------------------|


                               PM---|                       PM--------------|
   Q.                          S    S     Q                 S    S     S    S
|-----------------------------------------------------------------------------------|
|-----------------------------------------------------------------------------------|
|-----------------------------------------------------------------------------------|
|-----------------------------------------------------------------------------------|
|--2--------------------------------------3-----------------3----3------------------|
|--2---------------------------0----0-----3----------------------------0----0-------|
|
|  H                                      E        E        E          E
|-----------------------------------------------------------------------------------|
|----------------------------------------------------------13---------12------------|
|--8-------------------------------------12-------11--------9----------8------------|
|----------------------------------------10--------9--------------------------------|
|--9--------------------------------------------------------------------------------|
|-----------------------------------------------------------------------------------|
|
|  |-------6-------|  |-------6--------|  |------6-------|  |--------6---------|
|  S   S  S  S  S  S  S  S  S  S  S    S  S  S  S  S  S  S  S  S    S  S  S    S
|--------14-19p14----------14-19p14------------15-20p15------------17-22p17---------|
|-----15----------15----15------------15----17----------17----19--------------19----|
|-16-----------------16------------------17----------------19-----------------------|
|-----------------------------------------------------------------------------------|
|-----------------------------------------------------------------------------------|
|-----------------------------------------------------------------------------------|


                               PM---|              PM---|              PM---|
   Q.                          S    S     E        S    S     E        S    S
|--------------------------------------------------------------------------------|
|--------------------------------------------------------------------------------|
|--------------------------------------------------------------------------------|
|--------------------------------------------------------------------------------|
|--2--------------------------------------3-------------------5------------------|
|--2---------------------------0----0-----3--------0----0-----5--------0----0----|
|
|  H                                      Q                   Q
|--------------------------------------------------------------------------------|
|--------------------------------------------------------------------------------|
|-------------------------------------------------------------9------------------|
|--9-------------------------------------10--------------------------------------|
|--6--------------------------------------7------------------10------------------|
|--------------------------------------------------------------------------------|
|
|  |-------6-------|  |-------6--------|  |-------6--------|  |-------6--------|
|  S   S  S  S  S  S  S  S  S  S  S    S  S  S  S  S  S    S  S  S  S  S  S    S
|--------14-19p14----------14-19p14------------15-20p15------------17-22p17------|
|-----15----------15----15------------15----17------------17----19------------19-|
|-16-----------------16------------------17------------------19------------------|
|--------------------------------------------------------------------------------|
|--------------------------------------------------------------------------------|
|--------------------------------------------------------------------------------|


   e        E        e        E        e        E        e      E
|-----------------------------------------------------------------------|
|-----------------------------------------------------------------------|
|-----------------------------------------------------------------------|
|--4--------------------------------------------------------------------|
|--2-----------------5-----------------7-----------------3--------------|
|--------------------3-----------------5-----------------1--------------|
|
|  W
|-----------------------------------------------------------------------|
|-----------------------------------------------------------------------|
|-----------------------------------------------------------------------|
|-----------------------------------------------------------------------|
|-----------------------------------------------------------------------|
|-----------------------------------------------------------------------|
|
|  |------6-------|  |------6-------|  |------6-------|  |----6-----|
|  S  S  S  S  S  S  S  S  S  S  S  S  S  S  S  S  S  S  S S S  S S S
|-------14-19p14----------10-15p10----------12-17p12---------8-13p8-----|
|----15----------15----11----------11----13----------13----9--------9---|
|-16----------------12----------------14----------------10--------------|
|-----------------------------------------------------------------------|
|-----------------------------------------------------------------------|
|-----------------------------------------------------------------------|


  Q=190
  PM-------------------------------------------|     PM
  E  S S S S S S S S S S E S S   E S S S S S S E E E E
|------------------------------|-----------------------|
|------------------------------|-----------------------|
|------------------------------|-----------------------|
|------------------------------|-----------------------|
|------------------------------|-----------------5-4-3-|
|-0--0-0-0-0-0-0-0-0-0-0-0-0-0-|-0-0-0-0-0-0-0-0-3-2-1-|
|
| Gtr VI
| e  E   Q       H               W
|------------------------------|-----------------------|
|------------------------------|-----------------------|
|------------------------------|-----------------------|
|------------------------------|-----------------------|
|-2----------------------------|-----------------------|
|-0----------------------------|-----------------------|
|
| q      Q       H               W
|------------------------------|-----------------------|
|------------------------------|-----------------------|
|-9\---------------------------|-----------------------|
|------------------------------|-----------------------|
|------------------------------|-----------------------|
|------------------------------|-----------------------|


  PM------------------------------------------|
  E S S S S E E E S S S S   E S S S S E S S S S E E
|-------------------------|-------------------------|
|-------------------------|-------------------------|
|-------------------------|-------------------------|
|-------------------------|---------------------1s2-|
|-------------------------|---------------------1s2-|
|-0-0-0-0-0-0-0-0-0-0-0-0-|-0-0-0-0-0-0-0-0-0-0-----|


  PM------------------------------------------|     PM
  E S S S S S S S S S S E S S   E S S S S S S E E E E
|-----------------------------|-----------------------|
|-----------------------------|-----------------------|
|-----------------------------|-----------------------|
|-----------------------------|-----------------------|
|-----------------------------|-----------------5-4-3-|
|-0-0-0-0-0-0-0-0-0-0-0-0-0-0-|-0-0-0-0-0-0-0-0-3-2-1-|
|
| Gtr VI
|                         PM|                       PM
| E E   H               E S S   E E   Q       E E E E
|-----------------------------|-----------------------|
|-----------------------------|-----------------------|
|-----------------------------|-----------------------|
|-----------------------------|-----------------------|
|-2---------------------------|-2---------------5-4-3-|
|-0-----------------------0-0-|-0---------------3-2-1-|


  PM------------------------------------------|
  E S S S S E E E S S S S   E S S S S E S S S S E E
|-------------------------|-------------------------|
|-------------------------|-------------------------|
|-------------------------|-------------------------|
|-------------------------|---------------------1s2-|
|-------------------------|---------------------1s2-|
|-0-0-0-0-0-0-0-0-0-0-0-0-|-0-0-0-0-0-0-0-0-0-0-----|
|
|                 PM----|
| E E   H         S S S S   E E   H             E E
|-------------------------|-------------------------|
|-------------------------|-------------------------|
|-------------------------|-------------------------|
|-------------------------|---------------------1s2-|
|-2-----------------------|-2-------------------1s2-|
|-0---------------0-0-0-0-|-0-----------------------|


    Gtrs I, VI
    PM------------------------------------------|     PM
    E S S S S S S S S S S E S S   E S S S S S S E E E E
||------------------------------|----------------------|
||o-----------------------------|----------------------|
||------------------------------|----------------------|
||------------------------------|----------------------|
||o-----------------------------|-----------------5-4-3|
||--0-0-0-0-0-0-0-0-0-0-0-0-0-0-|-0-0-0-0-0-0-0-0-3-2-1|


  PM------------------------------------------|
  E S S S S E E E S S S S   E S S S S E S S S S E E  6x
|-------------------------|--------------------------||
|-------------------------|-------------------------o||
|-------------------------|--------------------------||
|-------------------------|---------------------1s2--||
|-------------------------|---------------------1s2-o||
|-0-0-0-0-0-0-0-0-0-0-0-0-|-0-0-0-0-0-0-0-0-0-0------||


  $$
  PM------------|      PM------------|
  E S S S S E E E Q    E S S S S E E E Q
|--------------------|--------------------|
|--------------------|--------------------|
|--------------------|--------------------|
|-----------------4--|-----------------5--|
|-----------------2--|-----------------3--|
|-1-0-0-0-0-0-1-0----|-1-0-0-0-0-0-1-0----|


  PM----------------------------------------------|
  E S S S S E E S S S S E   E E S S S S E S S S S E
|-------------------------|-------------------------|
|-------------------------|-------------------------|
|-------------------------|-------------------------|
|-------------------------|-------------------------|
|-------------------------|-------------------------|
|-1-0-0-0-0-0-3-3-3-3-3-3-|-3-3-1-1-1-1-0-0-0-0-0-0-|


  PM------------|      PM------------|
  E S S S S E E E Q    E S S S S E E E Q
|--------------------|--------------------|
|--------------------|--------------------|
|--------------------|--------------------|
|-----------------4--|-----------------5--|
|-----------------2--|-----------------3--|
|-1-0-0-0-0-0-1-0----|-1-0-0-0-0-0-1-0----|


  PM----------------------------------|
  E S S S S E E S S S S E   E E S S S S E E Q
|-------------------------|--------------------|
|-------------------------|--------------------|
|-------------------------|--------------------|
|-------------------------|--------------------|
|-------------2-2-2-2-2-2-|-2-2---------2------|
|-1-0-0-0-0-0-3-3-3-3-3-3-|-3-3-1-1-1-1-0------|


    $
    PM------------------------------------------|     PM
    E S S S S S S S S S S E S S   E S S S S S S E E E E
||------------------------------|----------------------|
||o-----------------------------|----------------------|
||------------------------------|----------------------|
||------------------------------|----------------------|
||o-----------------------------|-----------------5-4-3|
||--0-0-0-0-0-0-0-0-0-0-0-0-0-0-|-0-0-0-0-0-0-0-0-3-2-1|


  PM------------------------------------------|
  E S S S S E E E S S S S   E S S S S E S S S S E E  4x
|-------------------------|--------------------------||
|-------------------------|-------------------------o||
|-------------------------|--------------------------||
|-------------------------|---------------------1s2--||
|-------------------------|---------------------1s2-o||
|-0-0-0-0-0-0-0-0-0-0-0-0-|-0-0-0-0-0-0-0-0-0-0------||


  PM------|     PM|       PM------------------|
  S S E E E E E E E   E E S S S S S S S S S S E
|-------------------|---------------------------|
|-------------------|---------------------------|
|-------------------|---------------------------|
|-------------------|---------------------------|
|-----------5s7-----|-7s8-----------------------|
|-5-5-5-5-5-3s5-5-5-|-5s6-6-6-6-6-6-6-6-6-6-6-6-|


  PM------|     PM--------|               PM---|
  S S E E E E E E E    E.  S  +E   E  +E  E  E E
|-------------------|----------------------------|
|-------------------|----------------------------|
|-------------------|----------------------------|
|-------------------|----------------------------|
|-----------5s7-----|-10--10-(10)-10-(10)-8-10-8-|
|-3-5-5-5-5-3s5-5-5-|--8---8--(8)--8--(8)-6--8-6-|


  PM------|     PM|       PM------------------|
  S S E E E E E E E   E E S S S S S S S S S S E
|-------------------|---------------------------|
|-------------------|---------------------------|
|-------------------|---------------------------|
|-------------------|---------------------------|
|-----------5s7-----|-7s8-----------------------|
|-5-5-5-5-5-3s5-5-5-|-5s6-6-6-6-6-6-6-6-6-6-6-6-|


  PM------|     PM--------|
  S S E E E E E E E    E.  S  +E   E  +Q   Q
|-------------------|-------------------------|
|-------------------|-------------------------|
|-------------------|-------------------------|
|-------------------|-------------------------|
|-----------5s7-----|-10--10-(10)-10-(10)--8--|
|-3-5-5-5-5-3s5-5-5-|--8---8--(8)--8--(8)--6--|


            PM|           PM|      PM|     PM|      PM|     PM|
    H.      E E   H.      E E   Q  E E E E E E   Q  E E E E E E
||--------------|-------------|----------------|------------------||
||o-------------|-------------|----------------|-----------------o||
||--------------|-------------|----------------|------------------||
||--2-----------|-5-----------|----------------|------------------||
||o-2-----------|-5-----------|-4------7s6-----|-3------6s5------o||
||--0-------0-0-|-3-------0-0-|-2--0-0-5s4-0-0-|-1--0-0-4s3-0-0---||


                                                           To Coda
       PM|    PM|      PM|    PM|      PM|     PM|      PM|     PM|
    Q  E E Q  E E   Q  E E Q  E E   Q  E E E E E E   Q  E E E E E E
||----------------|---------------|----------------|------------------||
||o---------------|---------------|----------------|-----------------o||
||----------------|---------------|----------------|------------------||
||----------------|---------------|----------------|------------------||
||o-2------2------|-5------5------|-4------7s6-----|-3------6s5------o||
||--0--0-0-0--0-0-|-3--0-0-3--0-0-|-2--0-0-5s4-0-0-|-1--0-0-4s3-0-0---||


              D.S. al Coda
                   2/4
          PM----|
  H.      S S S S   E E Q
|-----------------|--------||
|-----------------|--------||
|-----------------|--------||
|-2---------------|--------||
|-2---------------|-2------||
|-0-------0-0-0-0-|-0------||


 4/4
       PM----|       PM    PM        PM|     PM--------|
  H    E E E E   E E E E E E S S E   E E E E E S S S S E
|--------------|-------------------|---------------------|
|--------------|-------------------|---------------------|
|--------------|-------------------|---------------------|
|-2------------|-0-2---------------|---------------------|
|-2------------|-0-2---4-5---0h2h3-|-----5-4-------------|
|-0----0-0-0-0-|-----0-2-3-0-------|-0-2-3-2-1-1-1-1-1-1-|
|
| Gtr VI
|      PM----|             PM        PM|     PM--------|
| H    E E E E   E E Q   E E S S E   E E E E E S S S S E
|--------------|-------------------|---------------------|
|--------------|-------------------|---------------------|
|--------------|-------------------|---------------------|
|-2------------|-0-2---------------|---------------------|
|-2------------|-0-2---------0h2h3-|-----5-4-------------|
|-0----0-0-0-0-|-----------0-------|-0-2-3-2-1-1-1-1-1-1-|


      PM    PM           PM          PM
  E E E E E E S S E   Q  E E +E  E E E
|-------------------|------------------|
|-------------------|------------------|
|-------------------|------------------|
|-0-2---------------|-3----5-(5)-4-3---|
|-0-2---4-5---0h2h3-|-1----3-(3)-2-1-3-|
|-----0-2-3-0-------|----0-----------1-|
|
|           PM           PM          PM
| E E Q   E E S S E   Q  E E +E  E E E
|-------------------|------------------|
|-------------------|------------------|
|-------------------|------------------|
|-0-2---------------|-3----5-(5)-4-3---|
|-0-2---------0h2h3-|-1----3-(3)-2-1-3-|
|-----------0-------|----0-----------1-|


      PM    PM        PM|     PM--------|
  E E E E E E S S E   E E E E E S S S S E
|-------------------|---------------------|
|-------------------|---------------------|
|-------------------|---------------------|
|-0-2---------------|---------------------|
|-0-2---4-5---0h2h3-|-----5-4-------------|
|-----0-2-3-0-------|-0-2-3-2-1-1-1-1-1-1-|
|
|           PM        PM|     PM--------|
| E E Q   E E S S E   E E E E E S S S S E
|-------------------|---------------------|
|-------------------|---------------------|
|-------------------|---------------------|
|-0-2---------------|---------------------|
|-0-2---------0h2h3-|-----5-4-------------|
|-----------0-------|-0-2-3-2-1-1-1-1-1-1-|


      PM    PM|
  E E E E E E E E   W
|-----------------|------|
|-----------------|------|
|-----------------|------|
|-0-2-----------3-|-2----|
|-0-2---4-5-----3-|-2----|
|-----0-2-3-0-0---|------|
|
|           PM|
| E E Q E   E E E   W
|-----------------|------|
|-----------------|------|
|-----------------|------|
|-0-2-----------3-|-2----|
|-0-2-----------3-|-2----|
|-----------0-0---|------|


  Gtrs I, VI
      PM    PM        PM|     PM--------|
  E E E E E E S S E   E E E E E S S S S E
|-------------------|---------------------|
|-------------------|---------------------|
|-------------------|---------------------|
|-0-2---------------|---------------------|
|-0-2---4-5---0h2h3-|-----5-4-------------|
|-----0-2-3-0-------|-0-2-3-2-1-1-1-1-1-1-|


      PM    PM           PM          PM
  E E E E E E S S E   Q  E E +E  E E E
|-------------------|------------------|
|-------------------|------------------|
|-------------------|------------------|
|-0-2---------------|-3----5-(5)-4-3---|
|-0-2---4-5---0h2h3-|-1----3-(3)-2-1-3-|
|-----0-2-3-0-------|----0-----------1-|


      PM    PM        PM|     PM--------|       PM    PM|
  E E E E E E S S E   E E E E E S S S S E   E E E E E E E E   W
|-------------------|---------------------|-----------------|--------------|
|-------------------|---------------------|-----------------|--------------|
|-------------------|---------------------|-----------------|--------------|
|-0-2---------------|---------------------|-0-2-----------3-|-2------------|
|-0-2---4-5---0h2h3-|-----5-4-------------|-0-2---4-5-----3-|-2------------|
|-----0-2-3-0-------|-0-2-3-2-1-1-1-1-1-1-|-----0-2-3-0-0---|--------------|
|
|                                                                     Gtr IV
| W                   W                     W                 H    Q  E E
|-------------------|---------------------|-----------------|--------------|
|-------------------|---------------------|-----------------|--------------|
|-------------------|---------------------|-----------------|--------------|
|-------------------|---------------------|-----------------|--------------|
|-------------------|---------------------|-----------------|---------7-8--|
|-------------------|---------------------|-----------------|--------------|


  Gtr IV
                   |-----5------|                 |-----5------|
  S S S S E E E E  S S   S   S  S   E  E   E   E  S S S   S    S E    E
|---------------------------------|--------------------------------------|
|---------------------------------|------------------------------8-------|
|---------------------------------|-7------7---9-10p9p7h==9h==10-----10--|
|-6-------7-6-7-9-10p9p==7h==9h10-|---10---------------------------------|
|---8-7-8-------------------------|--------------------------------------|
|---------------------------------|--------------------------------------|
|
| Gtrs I, VI
|         PM    PM---------------------------------------------------|
| E   E   E E E E  S   S   E        E  S S S S E  E     S   S    S S  E
|---------------------------------|--------------------------------------|
|---------------------------------|--------------------------------------|
|---------------------------------|--------------------------------------|
|-0---2---------------------------|--------------------------------------|
|-0---2-----4-5-------------------|--------------------------------------|
|---------0-2-3-0--0---0---0------|-0--0-0-0-0-0--0-----0---0----0-0--0--|


                                |-3--|
  E  E  S  S E  S  S S  S  S S  S  S S    Q.          E  E.    S  +E     E
|--------------12-10-8---------12-10-8-|-13----------12S19----17-(17)---19-|
|-8-10-12p10p8---------12-10-8---------|-----------------------------------|
|--------------------------------------|-----------------------------------|
|--------------------------------------|-----------------------------------|
|--------------------------------------|-----------------------------------|
|--------------------------------------|-----------------------------------|
|
|       PM           PM-------------------------------------------------|
| E  E  E    E  E    E     S S  E         E  S S S S  E  E  S  S   S  S  E
|--------------------------------------|-----------------------------------|
|--------------------------------------|-----------------------------------|
|--------------------------------------|-----------------------------------|
|-0--2---------------------------------|-----------------------------------|
|-0--2-------4--5----------------------|-----------------------------------|
|-------0----2--3----0-----0-0--0------|--1--1-1-1-1--1--1--1--1---1--1--1-|


   Q.        +S     S  E  +S      +S      +E   E
|-19b20r====(19)p==17-19-(19)b20r(19)b20-(19)-17-|
|------------------------------------------------|
|------------------------------------------------|
|------------------------------------------------|
|------------------------------------------------|
|------------------------------------------------|
|
|         PM        PM----------------------------
|  E    E E   E  E  E  S   S       E
|------------------------------------------------|
|------------------------------------------------|
|------------------------------------------------|
|--0----2----------------------------------------|
|--0----2-----4--5-------------------------------|
|---------0---2--3--0--0---0-------0-------------|


      |--3--|
   E  S  S  S  E  E  S  S  S  S  E  E
|-19-17-19-17-16-17-16-17-16----16----|
|----------------------------18----18-|
|-------------------------------------|
|-------------------------------------|
|-------------------------------------|
|-------------------------------------|
|
|----------------------------------|
|  E  S  S  S  S  E  E  S  S  S  S  E
|-------------------------------------|
|-------------------------------------|
|-------------------------------------|
|-------------------------------------|
|-------------------------------------|
|--0--0--0--0--0--0--0--0--0--0--0--0-|


                                                         ~~
   E  E  S  S  S  S  E  E  E    E    E  Q           +E   Q      +Q
|---------------------------------|--------------------------------------|
|-17-15-17p15-17p15----15---------|--------------------------------------|
|-------------------16----16---14-|-16-14b16r======(14)-14-----(14)\-----|
|---------------------------------|--------------------------------------|
|---------------------------------|--------------------------------------|
|---------------------------------|--------------------------------------|
|
|        PM             PM---------------------------------------------|
|  E  E  E     E     E  E  S S  E    E  S    S S S   E   E S S   S   S E
|---------------------------------|--------------------------------------|
|---------------------------------|--------------------------------------|
|---------------------------------|--------------------------------------|
|--0--2---------------------------|--------------------------------------|
|--0--2--------4-----5------------|--------------------------------------|
|--------0-----2-----3--0--0-0--0-|--1--1----1-1-1---1---1-1-1---1---1-1-|


                                                 ~
   E.    S  S  S E  E Q        +E    E S S S S E H
|----------------------------------|-------------------------|
|-12----10-12p10S8-10-8b10r====(8)-|-7-8p7-8p7-8S3-----------|
|----------------------------------|-------------------------|
|----------------------------------|-------------------------|
|----------------------------------|-------------------------|
|----------------------------------|-------------------------|
|
|           PM        PM-----------------------------------|
|  E  E     E    E  E E    S S  E    E S S S S E E S S S S E
|----------------------------------|-------------------------|
|----------------------------------|-------------------------|
|----------------------------------|-------------------------|
|--0--2----------------------------|-------------------------|
|--0--2----------4--5--------------|-------------------------|
|-----------0----2--3-0----0-0--0--|-0-0-0-0-0-0-0-0-0-0-0-0-|


  E Q   E E Q     E   Q     E    E E E   E   E
|-------------------|--------------------------|
|-3-5S==7-----------|--------------------------|
|---------4S2-------|--------------7-----7---9-|
|-----------------5-|-7-----2---/9---9---------|
|-------------------|--------------------------|
|-------------------|--------------------------|
|
|     PM    PM-------------------------------|
| E E E E E E S S E   E S S S S  E E S S S S E
|-------------------|--------------------------|
|-------------------|--------------------------|
|-------------------|--------------------------|
|-0-2---------------|--------------------------|
|-0-2---4-5---------|--------------------------|
|-----0-2-3-0-0-0-0-|-1-1-1-1-1--1-1-1-1-1-1-1-|


           |--3---|         |-----5------|
   S S S S E  E   E S S  E  S S   S   S  S
|------------------------------------------|
|----------8-------------------------------|
|-11p9p7h9---11---9-7h9-11-11p9p==7h==9h11-|
|------------------------------------------|
|------------------------------------------|
|------------------------------------------|
|
|          PM            PM-----------------
|  E   E   E    E   E    E  S   S   E
|------------------------------------------|
|------------------------------------------|
|------------------------------------------|
|--0---2-----------------------------------|
|--0---2--------4---5----------------------|
|----------0----2---3----0--0---0---0------|


  |-----5------|         |------5-------|
  S  S S   S   S  E   E  S  S S    S    S S  S  S S
|-----------------------12p10p9-------------12p10p9--|
|-8-------------------8-----------12p==10p9----------|
|---11-9---7---9-11----------------------------------|
|----------------------------------------------------|
|----------------------------------------------------|
|----------------------------------------------------|
|
|----------------------------------------------|
| E      S   S    S S E  E      S    S    S  S  E
|----------------------------------------------------|
|----------------------------------------------------|
|----------------------------------------------------|
|----------------------------------------------------|
|----------------------------------------------------|
|-0------0---0----0-0-0--0------0----0----0--0--0----|


   |-----5-----|
   S  S S    S S   E  S  S  S  S  E  Q
|-12p10p8--------/20-19-17----------22b24-----|
|-----------11-9-----------20-19-17-----------|
|---------------------------------------------|
|---------------------------------------------|
|---------------------------------------------|
|---------------------------------------------|
|
|                  PM             PM-----------
|  E      E        E  E     E     E  S    S E
|---------------------------------------------|
|---------------------------------------------|
|---------------------------------------------|
|--0------2-----------------------------------|
|--0------2-----------4-----5-----------------|
|------------------0--2-----3-----0--0----0-0-|


   ~~~                                ~~~~
               |--3--|
   Q.          S  S  S  E  +E        +Q
|-22----------20h22p20-19-(19)b20r==(19)-----|
|--------------------------------------------|
|--------------------------------------------|
|--------------------------------------------|
|--------------------------------------------|
|--------------------------------------------|
|
|------------------------------------------|
|  E  S S S S  E        E   S     S   S  S E
|--------------------------------------------|
|--------------------------------------------|
|--------------------------------------------|
|--------------------------------------------|
|--------------------------------------------|
|--1--1-1-1-1--1--------1---1-----1---1--1-1-|


    T     T     T     T     T     T       T     T     T     T     T     T
                |-3-|             |-3-|               |-3-|             |-3-|
    S S S S S S S S S S S S S S S S S S   S S S S S S S S S S S S S S S S S S
||--7p3p0-7p3p0-7p3p0-7p3p0-7p3p0-7p3p0-|-8p3p0-8p3p0-8p3p0-8p3p0-8p3p0-8p3p0--|
||o-------------------------------------|--------------------------------------|
||--------------------------------------|--------------------------------------|
||--------------------------------------|--------------------------------------|
||o-------------------------------------|--------------------------------------|
||--------------------------------------|--------------------------------------|
|
|                             PM--|
|   H.                        E   E       W
||--------------------------------------|--------------------------------------|
||o-------------------------------------|--------------------------------------|
||--------------------------------------|-5------------------------------------|
||--2-----------------------------------|-5------------------------------------|
||o-2-----------------------------------|-3------------------------------------|
||--0-------------------------0---0-----|--------------------------------------|


   T      T      T      T        T    T
                 |-3-|                |-3-|
   S S S  S S S  S S S  S S S  S S S  S S S
|-10p5p2-10p5p2-10p5p2-10p5p2-10p5p2-12p5p2-|
|-------------------------------------------|
|-------------------------------------------|
|-------------------------------------------|
|-------------------------------------------|
|-------------------------------------------|
|
|  H.                            Q
|-------------------------------------------|
|-------------------------------------------|
|--7-----------------------------9----------|
|--7-----------------------------9----------|
|--5-----------------------------7----------|
|-------------------------------------------|


   T          T    T       T       T       T
                   |-3--|                  |-3--|
   S  S S  S  S S  S  S S  S  S S  S  S S  S  S S
|-15p10p7-15p10p7-15p10p7-15p10p7-12p10p7-14p10p7---|
|---------------------------------------------------|
|---------------------------------------------------|
|---------------------------------------------------|
|---------------------------------------------------|
|---------------------------------------------------|
|
|                                     PM--|
|  H.                                 E    E
|---------------------------------------------------|
|---------------------------------------------------|
|-12------------------------------------------------|
|-12------------------------------------------------|
|-10----------------------------------2----4--------|
|-------------------------------------0----2--------|


   T          T    T       T       T       T
                   |-3--|                  |-3--|
   S  S S  S  S S  S  S S  S  S S  S  S S  S  S S
|-15p10p7-15p10p7-15p10p7-15p10p7-15p10p7-15p10p7-|
|-------------------------------------------------|
|-------------------------------------------------|
|-------------------------------------------------|
|-------------------------------------------------|
|-------------------------------------------------|
|
|  W
|-------------------------------------------------|
|-------------------------------------------------|
|-------------------------------------------------|
|--5----------------------------------------------|
|--5----------------------------------------------|
|--3----------------------------------------------|


   T       T       T       T       T       T
                   |-3--|                  |-3--|
   S  S S  S  S S  S  S S  S  S S  S  S S  S  S S
|-17p12p8-17p12p8-17p12p8-17p12p8-17p12p8-17p12p8---|
|---------------------------------------------------|
|---------------------------------------------------|
|---------------------------------------------------|
|---------------------------------------------------|
|---------------------------------------------------|
|
|  W
|---------------------------------------------------|
|---------------------------------------------------|
|---------------------------------------------------|
|--7------------------------------------------------|
|--7------------------------------------------------|
|--5------------------------------------------------|


                                                          1.
   T        T        T        T        T        T          ~~~~~
                     |--3--|                    |--3--|
   S  S  S  S  S  S  S  S  S  S  S  S  S  S  S  S  S  S    W
|-17p14p10-17p14p10-17p14p10-17p14p10-17p14p10-17p14p10-|-17b19-----||
|-------------------------------------------------------|-15b17----o||
|-------------------------------------------------------|-----------||
|-------------------------------------------------------|-----------||
|-------------------------------------------------------|----------o||
|-------------------------------------------------------|-----------||
|
|  W                                                       W
|-------------------------------------------------------|-----------||
|-------------------------------------------------------|----------o||
|--7----------------------------------------------------|--9--------||
|--7----------------------------------------------------|--9--------||
|--5----------------------------------------------------|--7-------o||
|-------------------------------------------------------|-----------||


  2.
         |--3--|
   E     S  S  S  S  S  S  S  S  S  S  S  S  S  S  S
|----------------------------------------------------|
|-------12h15p12-15p12-17p12-15p12----12-15p12-17p12-|
|-14b16----------------------------14----------------|
|----------------------------------------------------|
|----------------------------------------------------|
|----------------------------------------------------|
|
|                                         PM---|
|  H.                                     E     E
|----------------------------------------------------|
|----------------------------------------------------|
|----------------------------------------------------|
|--2-------------------------------------------------|
|--2-------------------------------------------------|
|--0--------------------------------------0-----0----|


   S  S  S  S  S  S  S  S  S  S  S  S  S  S  S  S
|-------------------------------------------------|
|-15p12----12-15p12-17p12-15p12----12-17p12-15p12-|
|-------14----------------------14----------------|
|-------------------------------------------------|
|-------------------------------------------------|
|-------------------------------------------------|
|
|                                      PM---|
|  H.                                  E     E
|-------------------------------------------------|
|-------------------------------------------------|
|-------------------------------------------------|
|--5----------------------------------------------|
|--5----------------------------------------------|
|--3-----------------------------------0-----0----|


   S  S  S  S  S  S  S  S  S  S  S  S  S  S  S  S
|-------------------------------------------------|
|----12-15p12-17p12-15p12----12-15p12-17p12-15p12-|
|-14----------------------14----------------------|
|-------------------------------------------------|
|-------------------------------------------------|
|-------------------------------------------------|
|
|              PM---|                  PM---|
|  Q           E     E     Q           E     E
|-------------------------------------------------|
|-------------------------------------------------|
|-------------------------------------------------|
|--4----------------------------------------------|
|--4-----------------------7----------------------|
|--2-----------0-----0-----5-----------0-----0----|


   S  S  S  S  S  S  E  S  S   E  E  E
|--------------------------------------|
|----12-17p12-15p12----------/15-15-17-|
|-14----------------14-15-14-----------|
|--------------------------------------|
|--------------------------------------|
|--------------------------------------|
|
|              PM---|             PM|
|  Q           E     E  Q         E  E
|--------------------------------------|
|--------------------------------------|
|--------------------------------------|
|--3-----------------------------------|
|--3--------------------6--------------|
|--1-----------0-----0--4---------0--0-|


   |-----3-----|       |--3---|         |---3---|
   E     +E   +E      +E   E  E  E.  S  E  E    E
|-------------------------------15-------------15-|
|-17b20r(17)-(17)b20r(17)-15-17-----17-15h17------|
|-------------------------------------------------|
|-------------------------------------------------|
|-------------------------------------------------|
|-------------------------------------------------|
|
|                                       PM---|
|  H.                                   E    E
|-------------------------------------------------|
|-------------------------------------------------|
|-------------------------------------------------|
|--2----------------------------------------------|
|--2----------------------------------------------|
|--0------------------------------------0----0----|


   Q      +Q    E     +E   E  E
|-17b19--(17)--17b19-(17)-17p15-|
|-------------------------------|
|-------------------------------|
|-------------------------------|
|-------------------------------|
|-------------------------------|
|
|                          PM|
|  H.                      E  E
|-------------------------------|
|-------------------------------|
|-------------------------------|
|--5----------------------------|
|--5----------------------------|
|--3-----------------------0--0-|


                                                                 ~
   S  S  E  S  S  E  S  S  E  S  S  S  S    S  S  S  S  S S  S S H
|-17p15p14-15p14p12-14p12----------------|------------------------------|
|-------------------------13-15p12h13p12-|-13p12p10-12p10s8-10p8--------|
|----------------------------------------|-----------------------9------|
|----------------------------------------|------------------------------|
|----------------------------------------|------------------------------|
|----------------------------------------|------------------------------|
|
|           PM---|            PM---|                    PM--|       PM|
|  Q        E     E  Q        E     E       Q           E    E   Q  E E
|----------------------------------------|------------------------------|
|----------------------------------------|------------------------------|
|----------------------------------------|------------------------------|
|--4-------------------------------------|--3---------------------------|
|--4-----------------7-------------------|--3--------------------6------|
|--2--------0-----0--5--------0-----0----|--1-----------0----0---4--0-0-|


  |-3--|
  E E  E S S S S  S S S  S S  S  S S
|------------------------------------|
|------------------------------------|
|------------------------------------|
|------------------------------------|
|-7-9-10-7-9-7-9-10-7-9-10-7-10-10-9-|
|------------------------------------|
|
|        PM--|             PM---|
| Q      E   E    Q        E     E
|------------------------------------|
|------------------------------------|
|------------------------------------|
|------------------------------------|
|-2---------------2------------------|
|-0------0---0----0--------0-----0---|


                                   |------5------|
   S  S S  S  S S  S  S S  S  S S  S  S  S    S  S
|---------------------------------------------------|
|---------------------------------------------------|
|---------------------------------------------------|
|---------------------------------------------------|
|-10-12-9-10-12-9-10-12-9-10-12-9-10-12-10---12-14--|
|---------------------------------------------------|
|
|             PM--|                PM------|
|  Q          E    E    Q          E       E
|---------------------------------------------------|
|---------------------------------------------------|
|---------------------------------------------------|
|---------------------------------------------------|
|--5--------------------5---------------------------|
|--3----------0----0----3----------0-------0--------|


                           |--3--|
   S  S  S  S  S  S  S  S  E  E  E  S  S  S  S
|----------------------------------------------|
|----------------------------------------------|
|----------------------------------------------|
|----------------------------------------------|
|-10-12-14-10-12-14-14-12-14-15-12-14-15-12-14-|
|----------------------------------------------|
|
|              PM---|               PM---|
|  Q           E     E     Q        E     E
|----------------------------------------------|
|----------------------------------------------|
|----------------------------------------------|
|--4-------------------------------------------|
|--4-----------------------7-------------------|
|--2-----------0-----0-----5--------0-----0----|


                     |--3--|              |---3---|
   S  S  S  S  S  S  S  S  S  S  S  S  S  E  E    E
|---------------------------------------------------|
|---------------------------------------------------|
|---------------------------------------------------|
|---------------------------------------------------|
|-15h17-14-15-17-14-15-16-18-15-16-18-15-16-18---15-|
|---------------------------------------------------|
|
|              PM---|                     PM---|
|  Q           E     E        Q           E    E
|---------------------------------------------------|
|---------------------------------------------------|
|---------------------------------------------------|
|--3------------------------------------------------|
|--3--------------------------6---------------------|
|--1-----------0-----0--------4-----------0----0----|


                                       |------6-------|
   S  S  S  S  S  S  S  S  S  S  S  S  S  S  S  S  S  S
|-------------------------------------------------------|
|-------------------------------------------------------|
|-------------------------------------------------------|
|-12-14-16-12-14-16-12-14-16-12-14-16-12-14-16-16-14-16-|
|-------------------------------------------------------|
|-------------------------------------------------------|
|
|              PM---|                  PM------|
|  Q           E     E     Q           E        E
|-------------------------------------------------------|
|-------------------------------------------------------
Добавлено: 19.07.2012
Другие материалы по этой песне:

Страница создана 02.03.2012
http://primanota.ru/heathen/hypnotized-chords.htm
Привет, Гость.
Предлагаем пройти революционный курс по гитаре.
Подарок от PrimaNota.Ru, забирай!