PrimaNota.ru - самый крупный в мире бесплатный архив песенных текстов, аккордов, табулатур и нот


Heathen - Goblins Blade - таба, видео

Регистрация Запомнить меня
Войти через:  Facebook Google Twitter Vk Yandex Mail.ru

Heathen - Goblins Blade - таба, видео

Печатать
Просмотров: 168
Уроки эстрадного вокала в Санкт-Петербурге
Band:  Heathen
Album: Breaking The Silence
Song:  Goblin's Blade

http://www.heathenmetal.com/

Copyright (c)  Combat (1987)
Version 1.0 - 23/7/06

Transcribed By: Ryan
E-mail: ryanhidrio@hotmail.com


.  - palm mute           /  - slide up to
\  - slide down to       ~  - vibrato
h  - hammer on           b  - Bend
p  - pull off            Suffixes for bend
t  - tap                 f  - full bend    h - half bend
ph - pinched harmonic    q  - quarter bend t - tap bend
*  - see comment         ^  - Hold bend    r release bend
x  - Stuccatto           ~  - vibrato bend
,  - slight palm mute    () - ghost note, sustained note
"  - tremolo note        <> - Trill

Tuning E A D G B E


Intro

1A
1A + 1B together
1B + 1C together
1D = 1E together

Intro 1A
|-------------------------------------------------------------------|
|-------------------------------------------------------------------|
|-------------------------------------------------------------------|
|-4~--4---------------------------4---------------------------------|
|-------7-5-7~--7-5-4---------5~----7-4-----------------------------|   
|---------------------4~--7~----------------------------------------|

Intro 1B
|-------------------------------------------------------------------|
|-------------------------------------------------------------------|
|-------------------------------------------------------------------|
|-7~--7-6-4-6~--6-4-----------4~--7-4-------------------------------|
|-------------------7-----5~----------7-----------------------------|
|---------------------7~--------------------------------------------|

Intro 1C
|-------------------------------------------------------------------|
|-------------------------------------------------------------------|
|-6~--6---------------------------6---------------------------------|
|-------9-7-9~--9-7-6-----4~--7~----9-6-----------------------------|
|---------------------5~--------------------------------------------|
|-------------------------------------------------------------------|
Intro 1D
|-------------------------------------------------------------------|
|-------------------------------------------------------------------|
|-6~--6-----------------------------------7-8-7-5b-6~---------------|
|-------9-7-9~--9-7-6-----6-9-6h9p6---6-9---------------------------|
|---------------------5-8-----------8-------------------------------|
|-------------------------------------------------------------------|
Intro 1E
|-------------------------------------------------------------------|
|-----------7~----------------------------6-10-9-6-7~---------------|
|-9~--9-8-6-----9-8-6-----4-7-4h7p4---4-7---------------------------|
|---------------------3-6-----------6-------------------------------|
|-------------------------------------------------------------------|
|-------------------------------------------------------------------|



Riff 1
Guitar 1
|-------------------------------------------------------------------|
|-------------------------------------------------------------------|
|-------------------------------------------------------------------|
|-------------------------------------------4---7-6-4---------------|
|-4-------4-6-7-2-------2-4-6-4-------4-6-7-2---5-4-2---------------|
|-2-2222222-4-5-0-0000000-2-4-2-2222222-4-5-------------------------|  x1
    ......        ......        ......  

Guitar 2
|-------------------------------------------------------------------|
|-------------------------------------------------------------------|
|-------------------------------------------------------------------|
|-----------------------------------------------7-6-4---------------|
|-----------------------------------------------5-4-2-4-------------|
|-----------------------------------------------------2-------------|  x1

Then both guitars together except guitar one plays: 
Riff 1A
|-------------------------------------------------------------------|
|-------------------------------------------------------------------|
|-------------------------------------------------------------------|
|-----------------------------------------------4-2-----------------|
|-4-------4-6-7-2-------2-4-6-4-------4-6-7-6~------4---------------|
|-2-2222222-4-5-0-0000000-2-4-2-2222222-4-5-------------------------|  x1 
    ......        ......        ......

Riff 1 Both Guitars
|-------------------------------------------------------------------|
|-------------------------------------------------------------------|
|-------------------------------------------------------------------|
|-------------------------------------------4---7-6-4---------------|
|-4-------4-6-7-2-------2-4-6-4-------4-6-7-2---5-4-2---------------|
|-2-2222222-4-5-0-0000000-2-4-2-2222222-4-5-------------------------|  x2
    ......        ......        ......  

Verse Riff 
|-------------------------------------------------------------------|
|-------------------------------------------------------------------|
|-------------------------------------------------------------------|
|-------------------------------2-hold--------------2----2---4------|
|-4-------4-6-7-----------------2---------4-6--------4p2---4--------|
|-2-2222222-4-5-0-0-000-0-0-000---------0-2-4-222222----------------|  x4
    ......      . . ... . . ...         .     ......

Chorus Riff
||-------------------------------------------------------------------|
||-------------------------------------------------------------------|
||------------------6-4----------------------------------------------|
||-7-------7h9p7---------6---4-6-7-------7h9p7---4-----6-------------|
||-5-5555555-------4-------------5-5555555-------2-222-4-4444-5------|
||------------------------------------------------------------3------|
     ......                        ......          ...   ....

|-------------------------------------------------------------------||
|-------------------------------------------------------------------||
|-------------------6-4-----------4-2-------------------------------||
|-7-------7h9p7---------6---4-6-------4---2-4-----------------------||
|-5-5555555-------4-------------2---------------2-5---2-5-----------||
|---------------------------------------------4-----3---------------|| x1         
    ......                     

Riff 1 Both Guitars
|-------------------------------------------------------------------|
|-------------------------------------------------------------------|
|-------------------------------------------------------------------|
|-------------------------------------------4---7-6-4---------------|
|-4-------4-6-7-2-------2-4-6-4-------4-6-7-2---5-4-2---------------|
|-2-2222222-4-5-0-0000000-2-4-2-2222222-4-5-------------------------|  x1 
    ......        ......        ......


Riff 1A Guitar 1
|-------------------------------------------------------------------|
|-------------------------------------------------------------------|
|-------------------------------------------------------------------|
|-----------------------------------------------4-2-----------------|
|-4-------4-6-7-2-------2-4-6-4-------4-6-7-6~------4---------------|
|-2-2222222-4-5-0-0000000-2-4-2-2222222-4-5-------------------------|  x1 
    ......        ......        ......


Verse Riff   x4
Chorus Riff  x1


Riff 2 Guitar 1

|-------------------------------------------------------------------|
|-------------------------------------------------------------------|
|-------------------------------------------------------------------|
|----------------------------------------------------0-2------------|
|-4-----4-------------2-1----1---4-----4----------------------------|
|-2-222-2-22222222320------3---3-2-222-2-22222222320------0-3333----| x2
    ...   ...........              ...   ...........        ....

Riff 2A Guitar 2

||------------------------------------------------------------------|
||------------------------------------------------------------------|
||------------------------------------------------------------------|
||---------------------------------------------------0-2------------|
||-4-----4-----------------------4-----4----------------------------|
||-2-----2-----------------------2-----2---------320------0-3333----|  
                                                  ...        ....

|-------------------------------------------------------------------||
|-------------------------------------------------------------------||
|-------------------------------------------------------------------||
|----------------------------------------------------0-2------------||
|-4-----4-------------2-1----1---4-----4----------------------------||
|-2-----2---------320------3---3-2-----2---------320------0-3333----|| x1
                  ...                            ...        .... 

Riff 2 Both Guitars

|-------------------------------------------------------------------|
|-------------------------------------------------------------------|
|-------------------------------------------------------------------|
|----------------------------------------------------0-2------------|
|-4-----4-------------2-1----1---4-----4----------------------------|
|-2-222-2-22222222320------3---3-2-222-2-22222222320------0-3333----| x2
    ...   ...........              ...   ...........        ....

Solo Guitar 2

Riff 3 Under Solo Guitar 1

|-------------------------------------------------------------------|
|-------------------------------------------------------------------|
|-------------------------------------------------------------------|
|-6-------------7-6-------7--6--9----------------6-4-------4-6-7----|
|-4-44444444444-5-4-4444445--4--7--7-------------4-2-2222222-4-5----|
|----------------------------------5-55555555555--------------------| x3
    ...........     ......           ...........     ......

Riff 3A Under Solo Guitar 1
|-------------------------------------------------------------------|
|-------------------------------------------------------------------|
|-------------------------------------------------------------------|
|-6-------------7-6-------7--6--9----------------6---------------4--|
|-4-44444444444-5-4-4444445--4--7--7-------------4-5-------------2--|
|----------------------------------5-55555555555---3-33333333333----| x1
    ...........      ......          ...........     ...........   

Riff 2 Both Guitars (1st guitar joins in after solo)

|-------------------------------------------------------------------|
|-------------------------------------------------------------------|
|-------------------------------------------------------------------|
|----------------------------------------------------0-2------------|
|-4-----4-------------2-1----1---4-----4----------------------------|
|-2-222-2-22222222320------3---3-2-222-2-22222222320------0-3333----| x2
    ...   ...........              ...   ...........        ....

Solo Guitar 1

Riff 4 Under Solo Guitar 2

||-------------------------------------------------------------------|
||-------------------------------------------------------------------|
||-------------------------------------------------------------------|
||-7---------------6---------------7---------------4-----------4-6---|
||-5-555555555555554-444444444444445-555555555555552-22222222222-4---|
||-------------------------------------------------------------------|
     ..............  ..............  ..............  ..........

|-------------------------------------------------------------------||
|-------------------------------------------------------------------||
|-------------------------------------------------------------------||
|-7---------------6---------------4---------------------------------||
|-5-555555555555554-444444444444442-22222222222222--2-5---2-5-------||
|-------------------------------------------------4-----3-----------||  x1
    ..............  ..............  ..............

Riff 1 Guitar 2 x4, Guitar 1 joins in 2nd time
Verse Riff x4 
Chorus Riff x1

Outro

|-------------------------------------------------------------------|
|-------------------------------------------------------------------|
|-------------------------------------------------------------------|
|-----------------------------------4-------------------------------|
|---2-5---2-5---2-5---2-5---2-5---2----4--------------------------4-|
|-4-----3-----4-----3-----4-----0------2--------------------------2-|


END
Добавлено: 18.03.2012
Другие материалы по этой песне:
  • Аккорды и текст

Страница создана 18.03.2012
http://primanota.ru/heathen/goblins-blade-chords.htm
Привет, Гость.
Предлагаем пройти революционный курс по гитаре.
Подарок от PrimaNota.Ru, забирай!