PrimaNota.ru - самый крупный в мире бесплатный архив песенных текстов, аккордов, табулатур и нот


Heathen - Dying Season - таба, видео

Регистрация Запомнить меня
Войти через:  Facebook Google Twitter Vk Yandex Mail.ru

Heathen - Dying Season - таба, видео

Печатать
Просмотров: 114
Авторы музыки: Lee Altus
Авторы текста: Dave White
Intro (Banjo arranged for clean guitar) 
e|-------------------------------------| 
B|-------------------------------------| 
G|-------------------------------------| 
D|-------------------------6tr7---6-9--| 
A|----7~---7h8p7p5-7~-7tr8------7------| 
E|--0----0-----------------------------| 
                                * 
e|-------------------------------------------| 
B|-------------------------------------------| 
G|-------------------------------------------| 
D|----------------------------7h8p7p5-7------| 
A|----7~---7h8p7p5-7~-7h8p7p5-----------8-5--| 
E|--0----0-----------------------------------| 

e|-------------------------------------| 
B|-------------------------------------| 
G|-------------------------------------| 
D|-------------------------6tr7---6-9--| 
A|----7~---7h8p7p5-7~-7tr8------7------| 
E|--0----0-----------------------------| 
                                * 
e|----------------------------------| 
B|----------------------------------| 
G|--10-9----------------------------| 
D|-------12-9-----------------------| 
A|------------12-11-----------------| 
E|------------------13-12-10-7-7-5--| 
                             h 

Lead into next riff: (Distortion) 
e|------| 
B|------| 
G|------| 
D|------| 
A|--3---| 
E|--1---|

Riff 1 
e|-------------------------------------| 
B|-------------------------------------| 
G|-------------------------------------| 
D|-------------------------6tr7---6-9--| 
A|----7~---7h8p7p5-7~-7tr8------7------| 
E|--0----0-----------------------------| 
    *    *                      * 
e|-------------------------------------------| 
B|-------------------------------------------| 
G|-------------------------------------------| 
D|----------------------------7h8p7p5-7------| 
A|----7~---7h8p7p5-7~-7h8p7p5-----------8-5--| 
E|--0----0-----------------------------------| 
    *    * 
e|-------------------------------------| 
B|-------------------------------------| 
G|-------------------------------------| 
D|-------------------------6tr7---6-9--| 
A|----7~---7h8p7p5-7~-7tr8------7------| 
E|--0----0-----------------------------| 
    *    *                      * 

Guitar 1 
e|---------------------| 
B|--9tr10-6------------| 
G|----------7-5-4------| 
D|----------------7-3--| 
A|---------------------| 
E|---------------------| 

Guitar 2 
e|---------------------| 
B|---------------------| 
G|--9tr10-7------------| 
D|----------9-7-6------| 
A|----------------8-7--| 
E|---------------------| 

Riff 1a 
Guitar 1 
e|-------------------------------------| 
B|-------------------------------------| 
G|-------------------------------------| 
D|-------------------------6tr7---6-9--| 
A|----7~---7h8p7p5-7~-7tr8------7------| 
E|--0----0-----------------------------| 
    *    *                      * 
e|-------------------------------------------| 
B|-------------------------------------------| 
G|-------------------------------------------| 
D|----------------------------7h8p7p5-7------| 
A|----7~---7h8p7p5-7~-7h8p7p5-----------8-5--| 
E|--0----0-----------------------------------| 
    *    * 
e|-------------------------------------| 
B|-------------------------------------| 
G|-------------------------------------| 
D|-------------------------6tr7---6-9--| 
A|----7~---7h8p7p5-7~-7tr8------7------| 
E|--0----0-----------------------------| 
    *    *                      * 
e|-------------------------------------| 
B|-------------------------------------| 
G|-------------------------------------| 
D|-------------------------------------| 
A|-------------------------------------| 
E|-------------------------------------| 

Guitar 2 
e|-------------------------------------------------| 
B|-------------------------------------------------| 
G|-------------------------------------------------| 
D|--------------------------------10tr11----10-13--| 
A|----11~---11h12p11p9-11~-11tr12--------11--------| 
E|--0-----0----------------------------------------| 
    *     * 
e|--------------------------------------------------------| 
B|--------------------------------------------------------| 
G|--------------------------------------------------------| 
D|------------------------------------11h12p11p9-11-------| 
A|----11~---11h12p11p9-11~-11h12p11p9---------------12-9--| 
E|--0-----0-----------------------------------------------| 
    *     * 
e|-------------------------------------------------| 
B|-------------------------------------------------| 
G|-------------------------------------------------| 
D|--------------------------------10tr11----10-13--| 
A|----11~---11h12p11p9-11~-11tr12--------11--------| 
E|--0-----0----------------------------------------| 
    *     * 
e|-------------------------------------| 
B|-------------------------------------| 
G|-------------------------------------| 
D|-------------------------------------| 
A|-------------------------------------| 
E|-------------------------------------| 

Riff 1b 
e|-------------------------------------| 
B|-------------------------------------| 
G|-------------------------------------| 
D|-------------------------------------| 
A|----------7h8p7p5-7~-----------------| 
E|--0-00000------------0-00000---------| 
    * *****            * *****
Добавлено: 26.07.2012
Другие материалы по этой песне:

Страница создана 18.03.2012
http://primanota.ru/heathen/dying-season-chords.htm
Привет, Гость.
Предлагаем пройти революционный курс по гитаре.
Подарок от PrimaNota.Ru, забирай!