PrimaNota.ru - самый крупный в мире бесплатный архив песенных текстов, аккордов, табулатур и нот


Heathen - Breaking The Silence - таба, видео

Регистрация Запомнить меня
Войти через:  Facebook Google Twitter Vk Yandex Mail.ru

Heathen - Breaking The Silence - таба, видео

Печатать
Просмотров: 156
Intro
-----------------------------------------------------|
-----------------------------------------------------|
-2---0-2---0-2--4--4b--4--2-4-2---2------------------|
--------------------------------4---4---2-4-2--------|
--------------------------------------4-------4-2----|
--------------------------------------------------2--|

when the drums come in riff (that's what we'll call the second part of the intro)
------------------------------------------------------|
------------------------------------------------------|
------------------------------------------------------|
------------------------------------------------------|
----------------------5--7-----------------------5----|
-5--5-5-5-5-5-5-5--7--------5--5-5-5-5-5-5-5--7-------|

Verse:
----------------------------------------------------------|
----------------------------------------------------------|
----------------------------------------------------------|
----------------------------------------------------------|
-7--------------7--------------7--------------------12----|
-5--5-5-5-5-5-5-5--5-5-5-5-5-5-5--5-5-5-5-5-5-5--5--10----|

----------------------------------------------------------|
----------------------------------------------------------|
----------------------------------------------------------|
----------------------------------------------------------|
-7--------------7--------------7--------------12-10--9----|
-5--5-5-5-5-5-5-5--5-5-5-5-5-5-5--5-5-5-5-5-5-10--8--7----|
Note: palm mute the power chords to get the best effect

Bridge:
-----------------------------------------------------------------------------|
-----------------------------------------------------------------------------|
-5--5----4--2--2----2--4--2--0--------------5--4--2--------------------------|
--------------------------------3--2-----------------5--3--2--2--3----2-3----|
-----------------------------------------------------------------------------|
-----------------------------------------------------------------------------|

-----------------------------------------------------------|
-10--10---8--7h-8p-7h-8p-7h-8p-7h-8p-7-8--8--7--5----------|
-----------------------------------------------------------|
-----------------------------------------------------------|
-----------------------------------------------------------|
-----------------------------------------------------------|

-------------------------------------|
-10--8--7--8--7--5--2----------------|triplets for the first 6 notes.
-------------------------------------|
-------------------------------------|
-------------------------------------|
-------------------------------------|

Chorus:
-----------------------------------------------|
-----------------------------------------------|
-----------------------------------------------|
-2----------4----------4s--5--------------5----|
-2----------4----------4s--5--------------3----|
-0----0--0--2----0--0--2s--3--0--0--0--0-------|

---------------------------------------------|
---------------------------------------------|
---------------------------------------------|
-2----------4----------4s--5-----5s--4--4----|
-2----------4----------2s--3-----3s--2--2----|
-0----0--0--2----0--0---------0--------------|

-----------------------------------------------|
-----------------------------------------------|
-----------------------------------------------|
-2----------4----------4s--5--------------5----|
-2----------4----------4s--5--------------3----|
-0----0--0--2----0--0--2s--3--0--0--0--0-------|

-----------------------------------------------|
-----------------------------------------------|
-----------------------------------------------|
-2----------4----------------------------------|
-2----------4----------------7--5--------------|
-0----0--0--2----0--2--7--5--------7--5--2--0--|

Breakdown:
----------------------------------------------|
----------------------------------------------|
----------------------------------------------|
----------------------------------------------|
-5----------------7--5--4---------------6--4--|
-3-------3--7--5--------2------2--6--4--------|

----------------------------------------------|
----------------------------------------------|
----------------------------------------------|
----------------------------------------------|
-3----------------3--1--2----------5----4-----|
-1-------1--3--1--------0-------0--3----2-----|

Solo Rythm 1:
-------------------------------------------------------|
-------------------------------------------------------|
-------------------------------------------------------|
-------------------------------------------------------|
----------------------7--5-----------------------6--4--|
-3--3-3-3-3-3-3-7--5--------2--2-2-2-2-2-2-6--4--------|

-----------------------------------------------------|
-----------------------------------------------------|
-----------------------------------------------------|
-----------------------------------------------------|
----------------------5--3-----------------5----4----|
-1--1-1-1-1-1-1-5--3--------0--0-0-0-0-0-0-3----2----|

Solo Rythm 2:
-------------------------------------------------------------|
-------------------------------------------------------------|
-------------------------------------------------------------|
-------------------------------------------------------------|
-5-----------------------------4-----------------------------|
-3--3-3-3-3-3-3-3--3-3-3-3-3-3-2--2-2-2-2-2-2-2--2-2-2-2-2-2-|

--------------------------------------------------------|
--------------------------------------------------------|
--------------------------------------------------------|
--------------------------------------------------------|
-3-----------------------------2--------------5----4----|
-1--1-1-1-1-1-1-1--1-1-1-1-1-1-0--0-0-0-0-0-0-3----2----|

Solo Rythm 3:
-------------------------------------------------------------|
-------------------------------------------------------------|
-------------------------------------------------------------|
-------------------------------------------------------------|
-5--------------5--------------4--------------4--------------|
-3--3-3-3-3-3-3-3--3-3-3-3-3-3-2--2-2-2-2-2-2-2--2-2-2-2-2-2-|

--------------------------------------------------------|
--------------------------------------------------------|
--------------------------------------------------------|
--------------------------------------------------------|
-3--------------3--------------2--------------5----4----|
-1--1-1-1-1-1-1-1--1-1-1-1-1-1-0--0-0-0-0-0-0-3----2----|

All for now. I'll try getting the solo. but until then

THRASH!!!
Добавлено: 13.04.2012
Другие материалы по этой песне:
  • Аккорды и текст

Страница создана 13.04.2012
http://primanota.ru/heathen/breaking-the-silence-chords.htm
Привет, Гость.
Предлагаем пройти революционный курс по гитаре.
Подарок от PrimaNota.Ru, забирай!