PrimaNota.ru - самый крупный в мире бесплатный архив песенных текстов, аккордов, табулатур и нот


Hearts And Hands - Were Not Alone - таба, видео

Регистрация Запомнить меня
Войти через:  Facebook Google Twitter Vk Yandex Mail.ru

Hearts And Hands - Were Not Alone - таба, видео

Печатать
Просмотров: 139
Tabbed by:
Aaron

Tuning:
drop a




Intro:

Lead 4x
E|12-0-0-12-0-0-12-0-0-12-0-0-12-0-12-0-|12-0-0-12-0-0-12-0-0-12\-------------|
B|--------------------------------------|-------------------------------------|
G|--------------------------------------|-------------------------------------|
D|--------------------------------------|-------------------------------------|
A|--------------------------------------|-------------------------------------|
E|--------------------------------------|-------------------------------------|

0:06
Rhythm 2x
E|---------------------------------------------------------------------------|
B|---------------------------------------------------------------------------|
G|---------------------------------------------------------------------------|
D|2-2-2--2-2---------2-2-2--2-2----------------------------------------------|
A|2-2-2--2-2-222-222-2-2-2--2-2-2222-2222------------------------------------|
E|2-2-2--2-2-222-222-2-2-2--2-2-2222-2222------------------------------------|


0:22
"They came and took me away..."
E|---------------------------------------------------------------------------|
B|---------------------------------------------------------------------------|
G|---------------------------------------------------------------------------|
D|---------------------------------------------------------------------------|
A|--------------------0000-0000--------------------------------0000-0000-----|
E|0-000-000-0-0--0--0-0000-0000-0-0-0--0--0--000-000-0-0--0--0-0000-0000-----|

2x
E|---------------------------------------------------------------------------|
B|---------------------------------------------------------------------------|
G|---------------------------------------------------------------------------|
D|---------------------------------------------------------------------------|
A|--------------------------------0000-0000----------------------------------|
E|0-0-0--0—0--000-000-0-0-0--0--0-0000-0000----------------------------------|

0:49
"I can't separate pact from fiction!"
E|---------------------------------------------------------------------------|
B|---------------------------------------------------------------------------|
G|---------------------------------------------------------------------------|
D|0~~------------------------------------------------------------------------|
A|0~~------------------------------------------------------------------------|
E|0~~------------------------------------------------------------------------|

0:55
Chorus:

Lead 4x
E|12p0-12p0-8p0-8p0-7p0-7p0-7p0-7p0-12p0-12p0-8p0-8p0-7p0-7p0-15p0-15p0------|
B|---------------------------------------------------------------------------|
G|---------------------------------------------------------------------------|
D|---------------------------------------------------------------------------|
A|---------------------------------------------------------------------------|
E|---------------------------------------------------------------------------|

Rhythm 2x
E|---------------------------------------------------------------------------|
B|---------------------------------------------------------------------------|
G|----------------------------------5555555555555555-2222222222222222--------|
D|2222222222222222-5555555555555555-5555555555555555-2222222222222222--------|
A|2222222222222222-5555555555555555-3333333333333333-0000000000000000--------|
E|2222222222222222-5555555555555555------------------------------------------|

Both
E|-----------------|
B|-----------------|
G|-----------------|
D|-----------------|
A|-----------------|
E|0-0-000--0-0-000-|


Verse 2x
E|---------------------------------------------------------------------------|
B|---------------------------------------------------------------------------|
G|----------------------------------------------------9---7------------------|
D|0-----------------------------0-----------------------7---7----------------|
A|0-0-0-0-0-0-0-00000-0-00000-0-0-0-0-0-0-0-0-----5-0------------------------|
E|0-0-0-0-0-0-0-00000-0-00000-0-0-0-0-0-0-0-0-0-3----------------------------|

Lead:
Plays chorus riff 2x

Rhythm:
E|---------------------------------------------------------------------------|
B|---------------------------------------------------------------------------|
G|---------------------------------------------------------------------------|
D|0-----------0-0--0-----------0-0-0--0-----------0-0--0---------------------|
A|0-00000-0-0-0-0--0-00000-0-0-0-0-0--0-00000-0-0-0-0--0-00000-0-0~----------|
E|0-00000-0-0-0-0--0-00000-0-0-0-0-0--0-00000-0-0-0-0--0-00000-0-0~----------|

Both guitars:
E|----------------------------------------------------------------------------|
B|----------------------------------------------------------------------------|
G|----------------------------------------------------------------------------|
D|-------------------------------0-0-0--0-----------0-0--0-----------0-0-0--0-|
A|0-00000-0-0--0-0--0-00000-0-0--0-0-0--0-00000-0-0-0-0--0-00000-0-0-0-0-0--0-|
E|0-00000-0-0--0-0--0-00000-0-0--0-0-0--0-00000-0-0-0-0--0-00000-0-0-0-0-0--0-|

Chorus

Breakdown:
"City Fall!!"
E|---------------------------------------------------------------------------|
B|---------------------------------------------------------------------------|
G|---------------------------------------------------------------------------|
D|0-0-0\\w---y---e-----------------------------------------------------------|
A|0-0-0\\-a-m-d-v------------------------------------------------------------|
E|0-0-0\\--m---i-------------------------------------------------------------|

2x
E|---------------------------------------------------------------------------|
B|---------------------------------------------------------------------------|
G|---------------------------------------------------------------------------|
D|---------------------------------------------------------------------------|
A|0-0-0--0-0-0-0000-0-0-0-----0-0-0-------0-0-0-000000-0-0-0-----------------|
E|1-1-1--1-1-1-1111-1-1-1-0-0-1-1-1-00-00-1-1-1-111111-1-1-1-----------------|


E|---------------------------------------------------------------------------|
B|---------------------------------------------------------------------------|
G|---------------------------------------------------------------------------|
D|---------------------------------------------------------------------------|
A|0-0-0--0-0-0-0--00-0-----0-0-0--0-0-0-0--0-0-0-0-0-0-----------------------|
E|0-0-0--0-0-0-0--00-0-0-0-0-0-0--0-0-0-0--0-0-0-0-0-0-----------------------|

E|---------------------------------------------------------------------------|
B|---------------------------------------------------------------------------|
G|---------------------------------------------------------------------------|
D|---------------------------------------------------------------------------|
A|0-0-0--0-0-0-0000-0-0-0-----0-0-0-------0-0-0-000000-0-0-0-----------------|
E|1-1-1--1-1-1-1111-1-1-1-0-0-1-1-1-00-00-1-1-1-111111-1-1-1-----------------|

"we all look to the sky..."
2:59         3:05 2x
E|------14~~-|----------------------------------------------------------------|
B|-15~~-12~~-|-------15----------15----------15----------15-------------------|
G|-12~~-12~~-|-12----------12----------12----------12-------------------------|
D|-12~~-12~~-|----12----12----12----12----12----12----12----12----------------|
A|-----------|----------------------------------------------------------------|
E|-----------|----------------------------------------------------------------|

Chorus

Outro: (don't think this part is 100% but it's as close as i could get) 4x
E|12-0---15/17-0-17-0-12-0-12-0-10-0-10-0-12-0---15/17-0-17-0-19-0-19-0-19-0-19-0--|
B|-----15--------------------------------------15----------------------------------|
G|---------------------------------------------------------------------------------|
D|---------------------------------------------------------------------------------|
A|---------------------------------------------------------------------------------|
E|---------------------------------------------------------------------------------|

E|-----------|
B|-----------|
G|-----------|
D|7~~5~~2~~~-|
A|7~~5~~2~~~-|
E|7~~5~~2~~~-|


That's it! Rate, comment, and if you have any corrections feel free to post them! :)


http://www.facebook.com/?ref=tn_tnmn#!/pages/HeartsHands/120845554677104?sk=app_2405167945 

Добавлено: 16.06.2012
Другие материалы по этой песне:

Страница создана 16.06.2012
http://primanota.ru/hearts-and-hands/were-not-alone-chords.htm
Привет, Гость.
Предлагаем пройти революционный курс по гитаре.
Подарок от PrimaNota.Ru, забирай!