PrimaNota.ru - самый крупный в мире бесплатный архив песенных текстов, аккордов, табулатур и нот


Heartist - Nothing You Didnt Deserve - таба, видео

Регистрация Запомнить меня
Войти через:  Facebook Google Twitter Vk Yandex Mail.ru

Heartist - Nothing You Didnt Deserve - таба, видео

Печатать
Просмотров: 66
Уроки эстрадного вокала в Санкт-Петербурге
----------------------------------------------------------------------------
                     Nothing You Didn't Deserve
                             Heartist
----------------------------------------------------------------------------

This is another incredible song by Heartist that I feel for lyrically. Cheating is 
one of the worst crimes you can do to someone and justice must be met when it occurs. Enjoy!

Username: dkm817 (same on X box live)
Youtube Cover: http://www.youtube.com/watch?v=MqvRcu4HNZs
Email: guitardrums@rockfan.com

Guitar 1 Rhythmic (C G C F A D)
Guitar 2 Lead     (C G C F A D)

NOTE: This was exported off of guitar pro.


Guitar 1

      E    E    E    E    E    E    E    E    
D||------------------------------------------|
A||--10---10---10---10---10---10---10---10---|
F||--13b--13b--13b--13b--13b--13b--13b--13b--|
C||------------------------------------------|
G||------------------------------------------|
C||------------------------------------------|


   E    E    E    E   E   E    E    E    
----------------------------------------|
--10---10---10---10--10--10---10---10---|
--13b--13b--13b--13--13--13b--13b--13b--|
----------------------------------------|
----------------------------------------|
----------------------------------------|


   E    E    E    E    E    E    E    E    
------------------------------------------|
--10---10---10---10---10---10---10---10---|
--13b--13b--13b--13b--13b--13b--13b--13b--|
------------------------------------------|
------------------------------------------|
------------------------------------------|


   E    E    E    E   E   E    E    E    
----------------------------------------|
--10---10---10---10--10--10---10---10---|
--13b--13b--13b--13--13--13b--13b--13b--|
----------------------------------------|
----------------------------------------|
----------------------------------------|


   E    E    E    E    E    E    E    E    
------------------------------------------|
--10---10---10---10---10---10---10---10---|
--13b--13b--13b--13b--13b--13b--13b--13b--|
------------------------------------------|
------------------------------------------|
------------------------------------------|


   E    E    E    E   E   E    E    E    
----------------------------------------|
--10---10---10---10--10--10---10---10---|
--13b--13b--13b--13--13--13b--13b--13b--|
----------------------------------------|
----------------------------------------|
----------------------------------------|


   E    E    E    E    E    E    E    E    
------------------------------------------|
--10---10---10---10---10---10---10---10---|
--13b--13b--13b--13b--13b--13b--13b--13b--|
------------------------------------------|
------------------------------------------|
------------------------------------------|


   E    E    E    E   E   E    E    E    
----------------------------------------|
--10---10---10---10--10--10---10---10---|
--13b--13b--13b--13--13--13b--13b--13b--|
----------------------------------------|
----------------------------------------|
----------------------------------------|


   E    E    E    E    E    E    E    E    
------------------------------------------|
--10---10---10---10---10---10---10---10---|
--13b--13b--13b--13b--13b--13b--13b--13b--|
------------------------------------------|
------------------------------------------|
------------------------------------------|


   E    E    E    E   E   E    E    E    
----------------------------------------|
--10---10---10---10--10--10---10---10---|
--13b--13b--13b--13--13--13b--13b--13b--|
----------------------------------------|
----------------------------------------|
----------------------------------------|


   E    E    E    E    E    E    E    E    
------------------------------------------|
--10---10---10---10---10---10---10---10---|
--13b--13b--13b--13b--13b--13b--13b--13b--|
------------------------------------------|
------------------------------------------|
------------------------------------------|


   E    E    E    E   E   E    E    E    
----------------------------------------|
--10---10---10---10--10--10---10---10---|
--13b--13b--13b--13--13--13b--13b--13b--|
----------------------------------------|
----------------------------------------|
----------------------------------------|


   E    E    E    E    E    E    E    E    
------------------------------------------|
--10---10---10---10---10---10---10---10---|
--13b--13b--13b--13b--13b--13b--13b--13b--|
------------------------------------------|
------------------------------------------|
------------------------------------------|


   E    E    E    E   E   E    E    E                
----------------------------------------|-----|-----|
--10---10---10---10--10--10---10---10---|-----|-----|
--13b--13b--13b--13--13--13b--13b--13b--|-----|-----|
----------------------------------------|-----|-----|
----------------------------------------|-----|-----|
----------------------------------------|-----|-----|


  PM PM PM PM   PM PM   PM   PM PM PM PM  
  S  S  S  S  S S  S  S S  S S  S  E  E   
-----------------------------------------|
-----------------------------------------|
-----------------------------------------|
--0--0--0--0----0--0----0----0--0--0--0--|
--0--0--0--0----0--0----0----0--0--0--0--|
--0--0--0--0----0--0----0----0--0--0--0--|


     PM PM   PM PM   PM   PM PM PM PM  
  E  S  S  S S  S  S S  S S  S  E  E   
--------------------------------------|
--------------------------------------|
--------------------------------------|
-----0--0----0--0----0----0--0--0--0--|
-----0--0----0--0----0----0--0--0--0--|
-----0--0----0--0----0----0--0--0--0--|


  PM PM PM PM   PM PM   PM   PM PM PM PM       PM PM   PM PM                   
  S  S  S  S  S S  S  S S  S S  S  E  E     E  S  S  S S  S  S S S E    Q      
-----------------------------------------|------------------------------------|
-----------------------------------------|------------------------------------|
-----------------------------------------|------------------------------------|
--0--0--0--0----0--0----0----0--0--0--0--|-----0--0----0--0-------------------|
--0--0--0--0----0--0----0----0--0--0--0--|-----0--0----0--0-------------------|
--0--0--0--0----0--0----0----0--0--0--0--|-----0--0----0--0----7-7-0--<>3b----|


  PM PM PM PM   PM PM   PM   PM PM PM PM  
  S  S  S  S  S S  S  S S  S S  S  E  E   
-----------------------------------------|
-----------------------------------------|
-----------------------------------------|
--0--0--0--0----0--0----0----0--0--0--0--|
--0--0--0--0----0--0----0----0--0--0--0--|
--0--0--0--0----0--0----0----0--0--0--0--|


     PM PM   PM PM   PM   PM PM PM PM  
  E  S  S  S S  S  S S  S S  S  E  E   
--------------------------------------|
--------------------------------------|
--------------------------------------|
-----0--0----0--0----0----0--0--0--0--|
-----0--0----0--0----0----0--0--0--0--|
-----0--0----0--0----0----0--0--0--0--|


  PM PM PM PM   PM PM   PM   PM PM PM PM       PM PM   PM PM            PH     
  S  S  S  S  S S  S  S S  S S  S  E  E     E  S  S  S S  S  S S S E    Q      
-----------------------------------------|------------------------------------|
-----------------------------------------|------------------------------------|
-----------------------------------------|------------------------------------|
--0--0--0--0----0--0----0----0--0--0--0--|-----0--0----0--0-------------------|
--0--0--0--0----0--0----0----0--0--0--0--|-----0--0----0--0-----------<>8b----|
--0--0--0--0----0--0----0----0--0--0--0--|-----0--0----0--0----7-7-0----------|


          PM PM PM PM PM                      PM PM PM PM               
          S  S  S  S  E  E  E  E  E  E     E  S  S  E  E  E  S E  S E   
-------|--------------------------------|------------------------------|
-------|--------------------------------|------------------------------|
-------|--------------------------------|------------------------------|
-------|--0--0--0--0--0-----------------|-----0--0--0--0--3--L-6--L-1--|
-------|--0--0--0--0--0-----------------|-----0--0--0--0--3--L-6--L-1--|
-------|--0--0--0--0--0-----------------|-----0--0--0--0--3--L-6--L-1--|


     PM PM PM                      PM PM PM PM               
  E  S  S  E  E  E  E  E  E     E  S  S  E  E  E  S E  S E   
-----------------------------|------------------------------|
-----------------------------|------------------------------|
-----------------------------|------------------------------|
--L--0--0--0-----------------|-----0--0--0--0--1--L-1--L-1--|
--L--0--0--0-----------------|-----0--0--0--0--1--L-1--L-1--|
--L--0--0--0-----------------|-----0--0--0--0--1--L-1--L-1--|


  PM PM PM PM PM                      PM PM PM PM               
  S  S  S  S  E  E  E  E  E  E     E  S  S  E  E  E  S E  S E   
--------------------------------|------------------------------|
--------------------------------|------------------------------|
--------------------------------|------------------------------|
--0--0--0--0--0-----------------|-----0--0--0--0--3--L-6--L-1--|
--0--0--0--0--0-----------------|-----0--0--0--0--3--L-6--L-1--|
--0--0--0--0--0-----------------|-----0--0--0--0--3--L-6--L-1--|


     PM PM PM                      PM PM PM PM                                
  E  S  S  E  E  E  E  E  E     E  S  S  E  E  Q    Q       W                 
-----------------------------|---------------------------|-------------------|
-----------------------------|---------------------------|-------------------|
-----------------------------|---------------------------|-------------------|
--L--0--0--0-----------------|-----0--0--0--0--0----1----|--0----------------|
--L--0--0--0-----------------|-----0--0--0--0--0----1----|--0----------------|
--L--0--0--0-----------------|-----0--0--0--0--0----1----|--0----------------|


  W                   H        H           Q    Q    Q    Q     
-------------------|--------------------|----------------------|
-------------------|--------------------|----------------------|
-------------------|--------------------|----------------------|
--0----------------|--0--------0--------|--0----0----0----0----|
--0----------------|--0--------0--------|--0----0----0----0----|
--0----------------|--0--------0--------|--0----0----0----0----|


  E  E  E  E  E  E  E  E     E  E  E  E  E  E  E  E   
--------------------------|--------------------------|
--------------------------|--------------------------|
--------------------------|--3--3--3--3--3--3--3--3--|
--5--5--5--5--5--5--5--5--|--3--3--3--3--3--3--3--3--|
--5--5--5--5--5--5--5--5--|--1--1--1--1--1--1--1--1--|
--5--5--5--5--5--5--5--5--|--------------------------|


  E  E  E  E  E  E  E  E     E  E  E  E  E  E  E  E   
--------------------------|--------------------------|
--------------------------|--------------------------|
--------------------------|--------------------------|
--1--1--1--1--1--1--1--1--|--1--1--1--1--1--1--1--1--|
--1--1--1--1--1--1--1--1--|--1--1--1--1--1--1--1--1--|
--1--1--1--1--1--1--1--1--|--1--1--1--1--1--1--1--1--|


  E  E  E  E  E  E  E  E     E  E  E  E  E  E  E  E   
--------------------------|--------------------------|
--------------------------|--------------------------|
--------------------------|--3--3--3--3--3--3--3--3--|
--5--5--5--5--5--5--5--5--|--3--3--3--3--3--3--3--3--|
--5--5--5--5--5--5--5--5--|--1--1--1--1--1--1--1--1--|
--5--5--5--5--5--5--5--5--|--------------------------|


  E  E  E  E  E  E  E  E     E  E  E  E  E  E  E  E   
--------------------------|--------------------------|
--------------------------|--------------------------|
--------------------------|--------------------------|
--1--1--1--1--1--1--1--1--|--1--1--1--1--1--1--1--1--|
--1--1--1--1--1--1--1--1--|--1--1--1--1--1--1--1--1--|
--1--1--1--1--1--1--1--1--|--1--1--1--1--1--1--1--1--|


  E  E  E  E  E  E  E  E     E  E  E  E  E  E  E  E   
--------------------------|--------------------------|
--------------------------|--------------------------|
--8--8--8--8--8--8--8--8--|--7--7--7--7--5--5--5--5--|
--x--x--x--x--x--x--x--x--|--x--x--x--x--x--x--x--x--|
--6--6--6--6--6--6--6--6--|--5--5--5--5--3--3--3--3--|
--------------------------|--------------------------|


  E  E  E  E  E  E  E  E     E  E  E  E  E  E  E  E   
--------------------------|--------------------------|
--------------------------|--------------------------|
--8--8--8--8--8--8--8--8--|--7--7--------5--5--------|
--x--x--x--x--x--x--x--x--|--x--x--------x--x--------|
--6--6--6--6--6--6--6--6--|--5--5--------3--3--------|
--------------------------|--------------------------|


   E   E   E   E   E   E   E   E      E   E   E   E   E   E   E   E   
--22--22--22--22--22--22--22--22--|--20--20--20--20--20--20--20--20--|
----------------------------------|----------------------------------|
----------------------------------|----------------------------------|
----------------------------------|----------------------------------|
----------------------------------|----------------------------------|
----------------------------------|----------------------------------|


   W                   W                 
--17----------------|--L----------------|
--------------------|-------------------|
--------------------|-------------------|
--------------------|-------------------|
--------------------|-------------------|
--------------------|-------------------|


  PM PM PM PM   PM PM   PM   PM PM PM PM       PM PM   PM PM            PH     
  S  S  S  S  S S  S  S S  S S  S  E  E     E  S  S  S S  S  S S S E    Q      
-----------------------------------------|------------------------------------|
-----------------------------------------|------------------------------------|
-----------------------------------------|------------------------------------|
--0--0--0--0----0--0----0----0--0--0--0--|-----0--0----0--0-------------------|
--0--0--0--0----0--0----0----0--0--0--0--|-----0--0----0--0-----------<>8b----|
--0--0--0--0----0--0----0----0--0--0--0--|-----0--0----0--0----7-7-0----------|


  PM PM PM PM PM                      PM PM PM PM               
  S  S  S  S  E  E  E  E  E  E     E  S  S  E  E  E  S E  S E   
--------------------------------|------------------------------|
--------------------------------|------------------------------|
--------------------------------|------------------------------|
--0--0--0--0--0-----------------|-----0--0--0--0--3--L-6--L-1--|
--0--0--0--0--0-----------------|-----0--0--0--0--3--L-6--L-1--|
--0--0--0--0--0-----------------|-----0--0--0--0--3--L-6--L-1--|


     PM PM PM                      PM PM PM PM               
  E  S  S  E  E  E  E  E  E     E  S  S  E  E  E  S E  S E   
-----------------------------|------------------------------|
-----------------------------|------------------------------|
-----------------------------|------------------------------|
--L--0--0--0-----------------|-----0--0--0--0--1--L-1--L-1--|
--L--0--0--0-----------------|-----0--0--0--0--1--L-1--L-1--|
--L--0--0--0-----------------|-----0--0--0--0--1--L-1--L-1--|


  PM PM PM PM PM                      PM PM PM PM               
  S  S  S  S  E  E  E  E  E  E     E  S  S  E  E  E  S E  S E   
--------------------------------|------------------------------|
--------------------------------|------------------------------|
--------------------------------|------------------------------|
--0--0--0--0--0-----------------|-----0--0--0--0--3--L-6--L-1--|
--0--0--0--0--0-----------------|-----0--0--0--0--3--L-6--L-1--|
--0--0--0--0--0-----------------|-----0--0--0--0--3--L-6--L-1--|


     PM PM PM                      PM PM PM PM            
  E  S  S  E  E  E  E  E  E     E  S  S  E  E  Q    Q     
-----------------------------|---------------------------|
-----------------------------|---------------------------|
-----------------------------|---------------------------|
--L--0--0--0-----------------|-----0--0--0--0--0----1----|
--L--0--0--0-----------------|-----0--0--0--0--0----1----|
--L--0--0--0-----------------|-----0--0--0--0--0----1----|


  PM PM PM PM PM                      PM PM PM PM               
  S  S  S  S  E  E  E  E  E  E     E  S  S  E  E  E  S E  S E   
--------------------------------|------------------------------|
--------------------------------|------------------------------|
--------------------------------|------------------------------|
--0--0--0--0--0-----------------|-----0--0--0--0--3--L-6--L-1--|
--0--0--0--0--0-----------------|-----0--0--0--0--3--L-6--L-1--|
--0--0--0--0--0-----------------|-----0--0--0--0--3--L-6--L-1--|


     PM PM PM                      PM PM PM PM               
  E  S  S  E  E  E  E  E  E     E  S  S  E  E  E  S E  S E   
-----------------------------|------------------------------|
-----------------------------|------------------------------|
-----------------------------|------------------------------|
--L--0--0--0-----------------|-----0--0--0--0--1--L-1--L-1--|
--L--0--0--0-----------------|-----0--0--0--0--1--L-1--L-1--|
--L--0--0--0-----------------|-----0--0--0--0--1--L-1--L-1--|


  PM PM PM PM PM                      PM PM PM PM               
  S  S  S  S  E  E  E  E  E  E     E  S  S  E  E  E  S E  S E   
--------------------------------|------------------------------|
--------------------------------|------------------------------|
--------------------------------|------------------------------|
--0--0--0--0--0-----------------|-----0--0--0--0--3--L-6--L-1--|
--0--0--0--0--0-----------------|-----0--0--0--0--3--L-6--L-1--|
--0--0--0--0--0-----------------|-----0--0--0--0--3--L-6--L-1--|


     PM PM PM                      PM PM PM PM                                
  E  S  S  E  E  E  E  E  E     E  S  S  E  E  Q    Q       W                 
-----------------------------|---------------------------|-------------------|
-----------------------------|---------------------------|-------------------|
-----------------------------|---------------------------|-------------------|
--L--0--0--0-----------------|-----0--0--0--0--0----1----|--0----------------|
--L--0--0--0-----------------|-----0--0--0--0--0----1----|--0----------------|
--L--0--0--0-----------------|-----0--0--0--0--0----1----|--0----------------|


  W                   H        H           Q    Q    Q    Q     
-------------------|--------------------|----------------------|
-------------------|--------------------|----------------------|
-------------------|--------------------|----------------------|
--0----------------|--0--------0--------|--0----0----0----0----|
--0----------------|--0--------0--------|--0----0----0----0----|
--0----------------|--0--------0--------|--0----0----0----0----|


  E  E  E  E  E  E  E  E     E  E  E  E  E  E  E  E   
--------------------------|--------------------------|
--------------------------|--------------------------|
--------------------------|--3--3--3--3--3--3--3--3--|
--5--5--5--5--5--5--5--5--|--3--3--3--3--3--3--3--3--|
--5--5--5--5--5--5--5--5--|--1--1--1--1--1--1--1--1--|
--5--5--5--5--5--5--5--5--|--------------------------|


  E  E  E  E  E  E  E  E     E  E  E  E  E  E  E  E   
--------------------------|--------------------------|
--------------------------|--------------------------|
--------------------------|--------------------------|
--1--1--1--1--1--1--1--1--|--1--1--1--1--1--1--1--1--|
--1--1--1--1--1--1--1--1--|--1--1--1--1--1--1--1--1--|
--1--1--1--1--1--1--1--1--|--1--1--1--1--1--1--1--1--|


  E  E  E  E  E  E  E  E     E  E  E  E  E  E  E  E   
--------------------------|--------------------------|
--------------------------|--------------------------|
--------------------------|--3--3--3--3--3--3--3--3--|
--5--5--5--5--5--5--5--5--|--3--3--3--3--3--3--3--3--|
--5--5--5--5--5--5--5--5--|--1--1--1--1--1--1--1--1--|
--5--5--5--5--5--5--5--5--|--------------------------|


  E  E  E  E  E  E  E  E     E  E  E  E  E  E  E  E   
--------------------------|--------------------------|
--------------------------|--------------------------|
--------------------------|--------------------------|
--1--1--1--1--1--1--1--1--|--1--1--1--1--1--1--1--1--|
--1--1--1--1--1--1--1--1--|--1--1--1--1--1--1--1--1--|
--1--1--1--1--1--1--1--1--|--1--1--1--1--1--1--1--1--|


  E  E  E  E  E  E  E  E     E  E  E  E  E  E  E  E   
--------------------------|--------------------------|
--------------------------|--------------------------|
--------------------------|--3--3--3--3--3--3--3--3--|
--5--5--5--5--5--5--5--5--|--3--3--3--3--3--3--3--3--|
--5--5--5--5--5--5--5--5--|--1--1--1--1--1--1--1--1--|
--5--5--5--5--5--5--5--5--|--------------------------|


  E  E  E  E  E  E  E  E     E  E  E  E  E  E  E  E   
--------------------------|--------------------------|
--------------------------|--------------------------|
--------------------------|--------------------------|
--1--1--1--1--1--1--1--1--|--1--1--1--1--1--1--1--1--|
--1--1--1--1--1--1--1--1--|--1--1--1--1--1--1--1--1--|
--1--1--1--1--1--1--1--1--|--1--1--1--1--1--1--1--1--|


  E  E  E  E  E  E  E  E     E  E  E  E  E  E  E  E   
--------------------------|--------------------------|
--------------------------|--------------------------|
--------------------------|--3--3--3--3--3--3--3--3--|
--5--5--5--5--5--5--5--5--|--3--3--3--3--3--3--3--3--|
--5--5--5--5--5--5--5--5--|--1--1--1--1--1--1--1--1--|
--5--5--5--5--5--5--5--5--|--------------------------|


  E  E  E  E  E  E  E  E     E  E  E  E  E  E  E  E   
--------------------------|--------------------------|
--------------------------|--------------------------|
--------------------------|--------------------------|
--1--1--1--1--1--1--1--1--|--1--1--1--1--1--1--1--1--|
--1--1--1--1--1--1--1--1--|--1--1--1--1--1--1--1--1--|
--1--1--1--1--1--1--1--1--|--1--1--1--1--1--1--1--1--|


  E  E  E  E  E  E  E  E     E  E  E  E  E  E  E  E   
--------------------------|--------------------------|
--------------------------|--------------------------|
--8--8--8--8--8--8--8--8--|--7--7--7--7--5--5--5--5--|
--x--x--x--x--x--x--x--x--|--x--x--x--x--x--x--x--x--|
--6--6--6--6--6--6--6--6--|--5--5--5--5--3--3--3--3--|
--------------------------|--------------------------|


  E  E  E  E  E  E  E  E     E  E  E  E  E  E  E  E     W                 
--------------------------|--------------------------|-------------------|
--------------------------|--------------------------|-------------------|
--8--8--8--8--8--8--8--8--|--7--7--------5--5--------|-------------------|
--x--x--x--x--x--x--x--x--|--x--x--------x--x--------|--1----------------|
--6--6--6--6--6--6--6--6--|--5--5--------3--3--------|--1----------------|
--------------------------|--------------------------|--1----------------|


  W                   W                   W                   W                 
-------------------|-------------------|-------------------|-------------------|
-------------------|-------------------|-------------------|-------------------|
-------------------|-------------------|-------------------|-------------------|
--L----------------|--1----------------|--L----------------|--0----------------|
--L----------------|--1----------------|--L----------------|--0----------------|
--L----------------|--1----------------|--L----------------|--0----------------|


  W                   W                   W                 
-------------------|-------------------|-------------------|
-------------------|-------------------|-------------------|
-------------------|-------------------|-------------------|
--L----------------|--0----------------|--L----------------|
--L----------------|--0----------------|--L----------------|
--L----------------|--0----------------|--L----------------|


  E  E  E  E  E  E  E  E     W                 
--------------------------|-------------------|
--------------------------|-------------------|
--------------------------|-------------------|
--1-----------------------|-------------------|
--1-----------------------|-------------------|
--1-----------------------|-------------------|


  PM    PM    PM PM PM   PM PM PM PM  
  E  E  E  E  S  S  S  S S  S  S  S   
-------------------------------------|
-------------------------------------|
-------------------------------------|
--0-----0-----0--0--0----0--0--0--0--|
--0-----0-----0--0--0----0--0--0--0--|
--0-----0-----0--0--0----0--0--0--0--|


    PM PM PM PM    PM PM PM   PM PM PM PM  
  S S  S  S  E  E  S  S  S  S S  S  S  S   
------------------------------------------|
------------------------------------------|
------------------------------------------|
----0--0--0--0-----0--0--0----0--0--0--0--|
----0--0--0--0-----0--0--0----0--0--0--0--|
----0--0--0--0-----0--0--0----0--0--0--0--|


  PM    PM    PM PM PM   PM PM PM PM  
  E  E  E  E  S  S  S  S S  S  S  S   
-------------------------------------|
-------------------------------------|
-------------------------------------|
--0-----0-----0--0--0----0--0--0--0--|
--0-----0-----0--0--0----0--0--0--0--|
--0-----0-----0--0--0----0--0--0--0--|


    PM PM PM PM    PM PM PM   PM PM PM PM    PM    PM    PM PM PM PM PM    
  S S  S  S  E  E  S  S  S  S S  S  S  S     E  E  E  E  S  S  S  S  Q     
------------------------------------------|-------------------------------|
------------------------------------------|-------------------------------|
------------------------------------------|-------------------------------|
----0--0--0--0-----0--0--0----0--0--0--0--|--0--L--0--L--0--0--0--0--0----|
----0--0--0--0-----0--0--0----0--0--0--0--|--0--L--0--L--0--0--0--0--0----|
----0--0--0--0-----0--0--0----0--0--0--0--|--0--L--0--L--0--0--0--0--0----|


     PM    PM    PM PM PM PM           PM    PM    PM PM PM PM PM    
  E  S  E  S  E  S  S  S  S   Q        E  E  E  E  S  S  S  S  Q     
------------------------------------|-------------------------------|
------------------------------------|-------------------------------|
------------------------------------|-------------------------------|
--L--------------0--0--0--0---------|--0--L--0--L--0--0--0--0--0----|
--L--------------0--0--0--0---------|--0--L--0--L--0--0--0--0--0----|
--L--0--0--0--0--0--0--0--0--/7\----|--0--L--0--L--0--0--0--0--0----|


     PM    PM                                       PM PM PM   PM PM PM PM  
  E  S  E  S  E   S  S  S  S S S S S    E  E  E  E  S  S  S  S S  S  S  S   
-------------------------------------|-------------------------------------|
-------------------------------------|-------------------------------------|
-----------------10-10-10-10-6-6-6-6-|-------------------------------------|
--L---------------x--x--x--x-x-x-x-x-|--------------0--0--0----0--0--0--0--|
--L---------------8--8--8--8-4-4-4-4-|--------------0--0--0----0--0--0--0--|
--L--0--0--0--0----------------------|--------------0--0--0----0--0--0--0--|


    PM PM PM PM    PM PM PM   PM PM PM PM  
  S S  S  S  E  E  S  S  S  S S  S  S  S   
------------------------------------------|
------------------------------------------|
------------------------------------------|
----0--0--0--0-----0--0--0----0--0--0--0--|
----0--0--0--0-----0--0--0----0--0--0--0--|
----0--0--0--0-----0--0--0----0--0--0--0--|


  PM    PM    PM PM PM   PM PM PM PM  
  E  E  E  E  S  S  S  S S  S  S  S   
-------------------------------------|
-------------------------------------|
-------------------------------------|
--0-----0-----0--0--0----0--0--0--0--|
--0-----0-----0--0--0----0--0--0--0--|
--0-----0-----0--0--0----0--0--0--0--|


    PM PM PM PM    PM PM PM   PM PM PM PM  
  S S  S  S  E  E  S  S  S  S S  S  S  S   
------------------------------------------|
------------------------------------------|
------------------------------------------|
----0--0--0--0-----0--0--0----0--0--0--0--|
----0--0--0--0-----0--0--0----0--0--0--0--|
----0--0--0--0-----0--0--0----0--0--0--0--|


  PM    PM    PM PM PM   PM PM PM PM  
  E  E  E  E  S  S  S  S S  S  S  S   
-------------------------------------|
-------------------------------------|
-------------------------------------|
--0-----0-----0--0--0----0--0--0--0--|
--0-----0-----0--0--0----0--0--0--0--|
--0-----0-----0--0--0----0--0--0--0--|


    PM PM PM PM    PM PM PM   PM PM PM PM  
  S S  S  S  E  E  S  S  S  S S  S  S  S   
------------------------------------------|
------------------------------------------|
------------------------------------------|
----0--0--0--0-----0--0--0----0--0--0--0--|
----0--0--0--0-----0--0--0----0--0--0--0--|
----0--0--0--0-----0--0--0----0--0--0--0--|


  PM    PM    PM PM PM   PM PM PM PM      PM PM PM PM              
  E  E  E  E  S  S  S  S S  S  S  S     S S  S  S  E  E  H         
-------------------------------------|----------------------------|
-------------------------------------|----------------------------|
-------------------------------------|----------------------------|
--0-----0-----0--0--0----0--0--0--0--|----0--0--0--0--------------|
--0-----0-----0--0--0----0--0--0--0--|----0--0--0--0--------------|
--0-----0-----0--0--0----0--0--0--0--|----0--0--0--0--------------|


   E    E    E    E    E    E    E    E    
------------------------------------------|
--10---10---10---10---10---10---10---10---|
--13b--13b--13b--13b--13b--13b--13b--13b--|
------------------------------------------|
------------------------------------------|
------------------------------------------|


   E    E    E    E   E   E    E    E    
----------------------------------------|
--10---10---10---10--10--10---10---10---|
--13b--13b--13b--13--13--13b--13b--13b--|
----------------------------------------|
----------------------------------------|
----------------------------------------|


   E    E    E    E    E    E    E    E    
------------------------------------------|
--10---10---10---10---10---10---10---10---|
--13b--13b--13b--13b--13b--13b--13b--13b--|
------------------------------------------|
------------------------------------------|
------------------------------------------|


   E    E    E    E   E   E    E    E    
----------------------------------------|
--10---10---10---10--10--10---10---10---|
--13b--13b--13b--13--13--13b--13b--13b--|
----------------------------------------|
----------------------------------------|
----------------------------------------|


   E    E    E    E    E    E    E    E    
------------------------------------------|
--10---10---10---10---10---10---10---10---|
--13b--13b--13b--13b--13b--13b--13b--13b--|
------------------------------------------|
------------------------------------------|
------------------------------------------|


   E    E    E    E   E   E    E    E    
----------------------------------------|
--10---10---10---10--10--10---10---10---|
--13b--13b--13b--13--13--13b--13b--13b--|
----------------------------------------|
----------------------------------------|
----------------------------------------|


   E    E    E    E    E    E    E    E    
------------------------------------------|
--10---10---10---10---10---10---10---10---|
--13b--13b--13b--13b--13b--13b--13b--13b--|
------------------------------------------|
------------------------------------------|
------------------------------------------|


   E    E    E    E   E   E    E    E      W                  
----------------------------------------|-------------------||
--10---10---10---10--10--10---10---10---|-------------------||
--13b--13b--13b--13--13--13b--13b--13b--|-------------------||
----------------------------------------|-------------------||
----------------------------------------|-------------------||
----------------------------------------|-------------------||


Guitar 2

Starts at (00:26)

   S  S  S  S  S  S  S  S  S  S  S  S  S  S  S  S  
--22-17-------------------------------------------|
--------18----------------------------------------|
-----------19-------------19-14----------------19-|
--------------19----------------15----15-17-19----|
-----------------20-19-17----------17-------------|
--------------------------------------------------|


   S  S  S  S  S  S  S  S  S  S  S  S  S  S  S  S  
--22-17-------------------------------------------|
--------18----------------------------------------|
-----------19-------------19-14----------------19-|
--------------19----------------15----15-17-19----|
-----------------20-19-17----------17-------------|
--------------------------------------------------|


   S  S  S  S  S  S  S  S  S  S  S  S  S  S  S  S  
--21-17-------------------------------------------|
--------17----------------------------------------|
-----------18-------------18-14-------------------|
--------------19----------------14----14-19-14----|
-----------------19-18-17----------16----------16-|
--------------------------------------------------|


   S  S  S  S  S  S  S  S  S  S  S  S  S  S  S  S  
--21-17-------------------------------------------|
--------17----------------------------------------|
-----------18-------------18-14-------------------|
--------------19----------------14----14-19-14----|
-----------------19-18-17----------16----------16-|
--------------------------------------------------|


   S  S  S  S  S  S  S  S  S  S  S  S  S  S  S  S  
--22-17-------------------------------------------|
--------18----------------------------------------|
-----------19-------------19-14----------------19-|
--------------19----------------15----15-17-19----|
-----------------20-19-17----------17-------------|
--------------------------------------------------|


   S  S  S  S  S  S  S  S  S  S  S  S  S  S  S  S  
--22-17-------------------------------------------|
--------18----------------------------------------|
-----------19-------------19-14----------------19-|
--------------19----------------15----15-17-19----|
-----------------20-19-17----------17-------------|
--------------------------------------------------|


   S  S  S  S  S  S  S  S  S  S  S  S  S  S  S  S  
--21-17-------------------------------------------|
--------17----------------------------------------|
-----------18-------------18-14-------------------|
--------------19----------------14----14-19-14----|
-----------------19-18-17----------16----------16-|
--------------------------------------------------|


   S  S  S  S  S  S  S  S  S  S  S  S  S  S  S  S     H        H         
--21-17-------------------------------------------|---------------------|
--------17----------------------------------------|---------------------|
-----------18-------------18-14-------------------|---------------------|
--------------19----------------14----14-19-14----|---------------------|
-----------------19-18-17----------16----------16-|--16-----------------|
--------------------------------------------------|---------------------|


  PM PM PM PM PM                      PM PM PM PM               
  S  S  S  S  E  E  E  E  E  E     E  S  S  E  E  E  S E  S E   
--------------------------------|------------------------------|
--------------------------------|------------------------------|
--------------------------------|------------------------------|
--0--0--0--0--0-----------------|-----0--0--0--0--3--L-6--L-1--|
--0--0--0--0--0-----------------|-----0--0--0--0--3--L-6--L-1--|
--0--0--0--0--0-----------------|-----0--0--0--0--3--L-6--L-1--|


     PM PM PM                      PM PM PM PM               
  E  S  S  E  E  E  E  E  E     E  S  S  E  E  E  S E  S E   
-----------------------------|------------------------------|
-----------------------------|------------------------------|
-----------------------------|------------------------------|
--L--0--0--0-----------------|-----0--0--0--0--1--L-1--L-1--|
--L--0--0--0-----------------|-----0--0--0--0--1--L-1--L-1--|
--L--0--0--0-----------------|-----0--0--0--0--1--L-1--L-1--|


  PM PM PM PM PM                      PM PM PM PM               
  S  S  S  S  E  E  E  E  E  E     E  S  S  E  E  E  S E  S E   
--------------------------------|------------------------------|
--------------------------------|------------------------------|
--------------------------------|------------------------------|
--0--0--0--0--0-----------------|-----0--0--0--0--3--L-6--L-1--|
--0--0--0--0--0-----------------|-----0--0--0--0--3--L-6--L-1--|
--0--0--0--0--0-----------------|-----0--0--0--0--3--L-6--L-1--|


     PM PM PM                      PM PM PM PM                                
  E  S  S  E  E  E  E  E  E     E  S  S  E  E  Q    Q       W                 
-----------------------------|---------------------------|-------------------|
-----------------------------|---------------------------|-------------------|
-----------------------------|---------------------------|-------------------|
--L--0--0--0-----------------|-----0--0--0--0--0----1----|--0----------------|
--L--0--0--0-----------------|-----0--0--0--0--0----1----|--0----------------|
--L--0--0--0-----------------|-----0--0--0--0--0----1----|--0----------------|


  W                   H        H           Q    Q    Q    Q     
-------------------|--------------------|----------------------|
-------------------|--------------------|----------------------|
-------------------|--------------------|----------------------|
--0----------------|--0--------0--------|--0----0----0----0----|
--0----------------|--0--------0--------|--0----0----0----0----|
--0----------------|--0--------0--------|--0----0----0----0----|


   E   E   E   E   E   E   E   E      E   E   E   E   E   E   E   E   
--15--15--15--15--15--15--18--18--|--17--17--17----------------------|
----------------------------------|--------------18--18--18--15--15--|
----------------------------------|----------------------------------|
----------------------------------|----------------------------------|
----------------------------------|----------------------------------|
----------------------------------|----------------------------------|


   E   E   E   E   E   E   E   E      E   E   E   E   E   E   E   E   
--15--15--15--13--13--13----------|----------------------------------|
--------------------------15--15--|--15--16--16--16--15--15--15--15--|
----------------------------------|----------------------------------|
----------------------------------|----------------------------------|
----------------------------------|----------------------------------|
----------------------------------|----------------------------------|


   E   E   E   E   E   E   E   E      E   E   E   E   E   E   E   E   
--15--15--15--15--15--15--18--18--|--17--17--17----------------------|
----------------------------------|--------------18--18--18--15--15--|
----------------------------------|----------------------------------|
----------------------------------|----------------------------------|
----------------------------------|----------------------------------|
----------------------------------|----------------------------------|


   E   E   E   E   E   E   E   E      E   E   E   E   E   E   E   E   
--17--17--17--17--20--20--20--20--|--22--22--22--22--22--22--22--22--|
----------------------------------|----------------------------------|
----------------------------------|----------------------------------|
----------------------------------|----------------------------------|
----------------------------------|----------------------------------|
----------------------------------|----------------------------------|


  E  E  E  E  E  E  E  E     E  E  E  E  E  E  E  E   
--------------------------|--------------------------|
--------------------------|--------------------------|
--5--5--5--5--5--5--5--5--|--3--3--3--3--2--2--2--2--|
--x--x--x--x--x--x--x--x--|--x--x--x--x--x--x--x--x--|
--3--3--3--3--3--3--3--3--|--1--1--1--1--0--0--0--0--|
--------------------------|--------------------------|


  E  E  E  E  E  E  E  E     E  E  E  E  E  E  E  E     W                 
--------------------------|--------------------------|-------------------|
--------------------------|--------------------------|-------------------|
--5--5--5--5--5--5--5--5--|--3--3--------2--2--------|-------------------|
--x--x--x--x--x--x--x--x--|--x--x--------x--x--------|--1----------------|
--3--3--3--3--3--3--3--3--|--1--1--------0--0--------|--1----------------|
--------------------------|--------------------------|--1----------------|


                      PM PM PM PM   PM PM   PM   PM PM PM PM  
  W                   S  S  S  S  S S  S  S S  S S  S  E  E   
-------------------|-----------------------------------------|
-------------------|-----------------------------------------|
-------------------|-----------------------------------------|
--L----------------|--0--0--0--0----0--0----0----0--0--0--0--|
--L----------------|--0--0--0--0----0--0----0----0--0--0--0--|
--L----------------|--0--0--0--0----0--0----0----0--0--0--0--|


     PM PM   PM PM   PM   PM PM PM PM  
  E  S  S  S S  S  S S  S S  S  E  E   
--------------------------------------|
--------------------------------------|
--------------------------------------|
-----0--0----0--0----0----0--0--0--0--|
-----0--0----0--0----0----0--0--0--0--|
-----0--0----0--0----0----0--0--0--0--|


  PM PM PM PM   PM PM   PM   PM PM PM PM       PM PM   PM PM            PH     
  S  S  S  S  S S  S  S S  S S  S  E  E     E  S  S  S S  S  S S S E    Q      
-----------------------------------------|------------------------------------|
-----------------------------------------|------------------------------------|
-----------------------------------------|------------------------------------|
--0--0--0--0----0--0----0----0--0--0--0--|-----0--0----0--0-------------------|
--0--0--0--0----0--0----0----0--0--0--0--|-----0--0----0--0-----------<>8b----|
--0--0--0--0----0--0----0----0--0--0--0--|-----0--0----0--0----7-7-0----------|


  PM PM PM PM PM                      PM PM PM PM               
  S  S  S  S  E  E  E  E  E  E     E  S  S  E  E  E  S E  S E   
--------------------------------|------------------------------|
--------------------------------|------------------------------|
--------------------------------|------------------------------|
--0--0--0--0--0-----------------|-----0--0--0--0--3--L-6--L-1--|
--0--0--0--0--0-----------------|-----0--0--0--0--3--L-6--L-1--|
--0--0--0--0--0-----------------|-----0--0--0--0--3--L-6--L-1--|


     PM PM PM                      PM PM PM PM               
  E  S  S  E  E  E  E  E  E     E  S  S  E  E  E  S E  S E   
-----------------------------|------------------------------|
-----------------------------|------------------------------|
-----------------------------|------------------------------|
--L--0--0--0-----------------|-----0--0--0--0--1--L-1--L-1--|
--L--0--0--0-----------------|-----0--0--0--0--1--L-1--L-1--|
--L--0--0--0-----------------|-----0--0--0--0--1--L-1--L-1--|


  PM PM PM PM PM                      PM PM PM PM               
  S  S  S  S  E  E  E  E  E  E     E  S  S  E  E  E  S E  S E   
--------------------------------|------------------------------|
--------------------------------|------------------------------|
--------------------------------|------------------------------|
--0--0--0--0--0-----------------|-----0--0--0--0--3--L-6--L-1--|
--0--0--0--0--0-----------------|-----0--0--0--0--3--L-6--L-1--|
--0--0--0--0--0-----------------|-----0--0--0--0--3--L-6--L-1--|


     PM PM PM                      PM PM PM PM            
  E  S  S  E  E  E  E  E  E     E  S  S  E  E  Q    Q     
-----------------------------|---------------------------|
-----------------------------|---------------------------|
-----------------------------|---------------------------|
--L--0--0--0-----------------|-----0--0--0--0--0----1----|
--L--0--0--0-----------------|-----0--0--0--0--0----1----|
--L--0--0--0-----------------|-----0--0--0--0--0----1----|


    |--3--| |-3-|   |--3--|  |--3--|  |--3--|  |--3--|  |--3--| |-3-|  
    S  S  S S S S   S  S  S  S  S  S  S  S  S  S  S  S  S  S  S S S S  
----------------------------------------------------------------------|
----------------------------------------------------------------------|
----------------------------------------------------------------------|
----------------------------------------------------------------------|
----------------------------------------------------------------------|
--/12-12-12-0-0-0-/12-12-12-12-12-12-12-12-12-12-12-12-12-12-12-0-0-0-|


    |--3--| |-3-|   |--3--| |-3-|  |--3--|  |--3--|  |--3--|  |--3--|  
    S  S  S S S S   S  S  S S S S  S  S  S  S  S  S  S  S  S  S  S  S  
----------------------------------------------------------------------|
----------------------------------------------------------------------|
----------------------------------------------------------------------|
----------------------------------------------------------------------|
----------------------------------------------------------------------|
--/12-12-12-0-0-0-/12-12-12-0-0-0-12-12-12-12-12-12-12-12-12-12-12-12-|


  |-3-| |-3-| |-3-| |--3--|  |--3--|  |--3--|  |--3--| |-3-|  
  S S S S S S S S S S S   S  S  S  S  S  S  S  S  S  S S S S  
-------------------------------------------------------------|
-------------------------------------------------------------|
-------------------------------------------------------------|
--0-0-0-0-0-0-0-0-0-0-0-/12-12-12-12-12-12-12-12-12-12-0-0-0-|
-------------------------------------------------------------|
-------------------------------------------------------------|


   |--3--|  |--3--| |-3-|  |--3--|  |--3--|  |--3--|  |--3--|  |--3--|  
   S  S  S  S  S  S S S S  S  S  S  S  S  S  S  S  S  S  S  S  S  S  S  
-----------------------------------------------------------------------|
-----------------------------------------------------------------------|
-----------------------------------------------------------------------|
--12-12-12-12-12-12-0-0-0-12-12-12-12-12-12-12-12-12-12-12-12-12-12-12-|
-----------------------------------------------------------------------|
-----------------------------------------------------------------------|


   |--3--| |-3-|  |--3--| |--3-| |--3-| |--3--|  |--3--| |-3-|  
   S  S  S S S S  S  S  S S S  S S  S S S  S  S  S  S  S S S S  
---------------------------------------------------------------|
---------------------------------------------------------------|
---------------------------------------------------------------|
--12-12-12-0-0-0-12-12-12-0-0-12-0-12-0-0-12-12-12-12-12-0-0-0-|
---------------------------------------------------------------|
---------------------------------------------------------------|


    |--3--|  |--3--| |-3-|   |--3--|  |--3--| |-3-|   |--3--| |-3-|  
    S  S  S  S  S  S S S S   S  S  S  S  S  S S S S   S  S  S S S S  
--------------------------------------------------------------------|
--------------------------------------------------------------------|
--------------------------------------------------------------------|
--------------------------------------------------------------------|
--------------------------------------------------------------------|
--/12-12-12-12-12-12-0-0-0-/12-12-12-12-12-12-0-0-0-/12-12-12-0-0-0-|


  |-3-| |-3-| |-3-| |--3--|  |--3--|  |--3--|  |--3--| |-3-|  
  S S S S S S S S S S S   S  S  S  S  S  S  S  S  S  S S S S  
-------------------------------------------------------------|
-------------------------------------------------------------|
-------------------------------------------------------------|
--0-0-0-0-0-0-0-0-0-0-0-/12-12-12-12-12-12-12-12-12-12-0-0-0-|
-------------------------------------------------------------|
-------------------------------------------------------------|


   |--3--|  |--3--| |-3-|  |--3--|  |--3--|  |--3--|  |--3--|  |--3--|  
   S  S  S  S  S  S S S S  S  S  S  S  S  S  S  S  S  S  S  S  S  S  S  
-----------------------------------------------------------------------|
-----------------------------------------------------------------------|
-----------------------------------------------------------------------|
--12-12-12-12-12-12-0-0-0-12-12-12-12-12-12-12-12-12-12-12-12-12-12-12-|
-----------------------------------------------------------------------|
-----------------------------------------------------------------------|


  W                   W                   H        H         
-------------------|-------------------|--------------------|
-------------------|-------------------|--------------------|
-------------------|-------------------|--------------------|
--0----------------|--0----------------|--0--------0--------|
--0----------------|--0----------------|--0--------0--------|
--0----------------|--0----------------|--0--------0--------|


  Q    Q    Q    Q        E   E   E   E   E   E   E   E   
----------------------|--15--15--15--15--15--15--18--18--|
----------------------|----------------------------------|
----------------------|----------------------------------|
--0----0----0----0----|----------------------------------|
--0----0----0----0----|----------------------------------|
--0----0----0----0----|----------------------------------|


   E   E   E   E   E   E   E   E      E   E   E   E   E   E   E   E   
--17--17--17----------------------|--15--15--15--13--13--13----------|
--------------18--18--18--15--15--|--------------------------15--15--|
----------------------------------|----------------------------------|
----------------------------------|----------------------------------|
----------------------------------|----------------------------------|
----------------------------------|----------------------------------|


   E   E   E   E   E   E   E   E      E   E   E   E   E   E   E   E   
----------------------------------|--15--15--15--15--15--15--18--18--|
--15--16--16--16--15--15--15--15--|----------------------------------|
----------------------------------|----------------------------------|
----------------------------------|----------------------------------|
----------------------------------|----------------------------------|
----------------------------------|----------------------------------|


   E   E   E   E   E   E   E   E      E   E   E   E   E   E   E   E   
--17--17--17----------------------|--17--17--17--17--20--20--20--20--|
--------------18--18--18--15--15--|----------------------------------|
----------------------------------|----------------------------------|
----------------------------------|----------------------------------|
----------------------------------|----------------------------------|
----------------------------------|----------------------------------|


   E   E   E   E   E   E   E   E      E   E   E   E   E   E   E   E   
--22--22--22--22--22--22--22--22--|--15--15--15--15--15--15--18--18--|
----------------------------------|----------------------------------|
----------------------------------|----------------------------------|
----------------------------------|----------------------------------|
----------------------------------|----------------------------------|
----------------------------------|----------------------------------|


   E   E   E   E   E   E   E   E      E   E   E   E   E   E   E   E   
--17--17--17----------------------|--15--15--15--13--13--13----------|
--------------18--18--18--15--15--|--------------------------15--15--|
----------------------------------|----------------------------------|
----------------------------------|----------------------------------|
----------------------------------|----------------------------------|
----------------------------------|----------------------------------|


   E   E   E   E   E   E   E   E      E   E   E   E   E   E   E   E   
----------------------------------|--15--15--15--15--15--15--18--18--|
--15--16--16--16--15--15--15--15--|----------------------------------|
----------------------------------|----------------------------------|
----------------------------------|----------------------------------|
----------------------------------|----------------------------------|
----------------------------------|----------------------------------|


   E   E   E   E   E   E   E   E      E   E   E   E   E   E   E   E   
--17--17--17----------------------|--17--17--17--17--20--20--20--20--|
--------------18--18--18--15--15--|----------------------------------|
----------------------------------|----------------------------------|
----------------------------------|----------------------------------|
----------------------------------|----------------------------------|
----------------------------------|----------------------------------|


   E   E   E   E   E   E   E   E     E  E  E  E  E  E  E  E   
--22--22--22--22--22--22--22--22--|--------------------------|
----------------------------------|--------------------------|
----------------------------------|--5--5--5--5--5--5--5--5--|
----------------------------------|--x--x--x--x--x--x--x--x--|
----------------------------------|--3--3--3--3--3--3--3--3--|
----------------------------------|--------------------------|


  E  E  E  E  E  E  E  E     E  E  E  E  E  E  E  E   
--------------------------|--------------------------|
--------------------------|--------------------------|
--3--3--3--3--2--2--2--2--|--5--5--5--5--5--5--5--5--|
--x--x--x--x--x--x--x--x--|--x--x--x--x--x--x--x--x--|
--1--1--1--1--0--0--0--0--|--3--3--3--3--3--3--3--3--|
--------------------------|--------------------------|


  E  E  E  E  E  E  E  E     W                   W                 
--------------------------|-------------------|-------------------|
--------------------------|-------------------|-------------------|
--3--3--------2--2--------|-------------------|-------------------|
--x--x--------x--x--------|--1----------------|--L----------------|
--1--1--------0--0--------|--1----------------|--L----------------|
--------------------------|--1----------------|--L----------------|


   S  S  S  S  S  S  S  S  S  S  S  S  S  S  S  S  
--20-20-20-20-20-20-20-20-20-20-20-20-20-20-20-20-|
--------------------------------------------------|
--------------------------------------------------|
--------------------------------------------------|
--------------------------------------------------|
--------------------------------------------------|


   S  S  S  S  S  S  S  S  S  S  S  S  S  S  S  S  
--18-18-18-18-18-18-18-18-17-17-17-17-17-17-17-17-|
--------------------------------------------------|
--------------------------------------------------|
--------------------------------------------------|
--------------------------------------------------|
--------------------------------------------------|


   E   E   E   E   E   E   E   E      E   E   E   E   E   E   E   E   
--18--18--18--18--18--18--18--18--|--18--18--18--18--18--18--18--18--|
----------------------------------|----------------------------------|
----------------------------------|----------------------------------|
----------------------------------|----------------------------------|
----------------------------------|----------------------------------|
----------------------------------|----------------------------------|


   E   E   E   E   E   E   E   E      E   E   E   E   E   E   E   E   
--17--17--17--17--17--17--17--17--|--15--15--15--15--14--14--14--14--|
----------------------------------|----------------------------------|
----------------------------------|----------------------------------|
----------------------------------|----------------------------------|
----------------------------------|----------------------------------|
----------------------------------|----------------------------------|


                                           PM    PM    PM PM PM   PM PM PM PM  
   W                   W                   E  E  E  E  S  S  S  S S  S  S  S   
--------------------|-------------------|-------------------------------------|
--16----------------|--L----------------|-------------------------------------|
--------------------|-------------------|-------------------------------------|
--------------------|-------------------|--0-----0-----0--0--0----0--0--0--0--|
--------------------|-------------------|--0-----0-----0--0--0----0--0--0--0--|
--------------------|-------------------|--0-----0-----0--0--0----0--0--0--0--|


    PM PM PM PM    PM PM PM   PM PM PM PM  
  S S  S  S  E  E  S  S  S  S S  S  S  S   
------------------------------------------|
------------------------------------------|
------------------------------------------|
----0--0--0--0-----0--0--0----0--0--0--0--|
----0--0--0--0-----0--0--0----0--0--0--0--|
----0--0--0--0-----0--0--0----0--0--0--0--|


  PM    PM    PM PM PM   PM PM PM PM  
  E  E  E  E  S  S  S  S S  S  S  S   
-------------------------------------|
-------------------------------------|
-------------------------------------|
--0-----0-----0--0--0----0--0--0--0--|
--0-----0-----0--0--0----0--0--0--0--|
--0-----0-----0--0--0----0--0--0--0--|


    PM PM PM PM    PM PM PM   PM PM PM PM    PM    PM    PM PM PM PM PM    
  S S  S  S  E  E  S  S  S  S S  S  S  S     E  E  E  E  S  S  S  S  Q     
------------------------------------------|-------------------------------|
------------------------------------------|-------------------------------|
------------------------------------------|-------------------------------|
----0--0--0--0-----0--0--0----0--0--0--0--|--0--L--0--L--0--0--0--0--0----|
----0--0--0--0-----0--0--0----0--0--0--0--|--0--L--0--L--0--0--0--0--0----|
----0--0--0--0-----0--0--0----0--0--0--0--|--0--L--0--L--0--0--0--0--0----|


     PM    PM    PM PM PM PM           PM    PM    PM PM PM PM PM    
  E  S  E  S  E  S  S  S  S   Q        E  E  E  E  S  S  S  S  Q     
------------------------------------|-------------------------------|
------------------------------------|-------------------------------|
------------------------------------|-------------------------------|
--L--------------0--0--0--0---------|--0--L--0--L--0--0--0--0--0----|
--L--------------0--0--0--0---------|--0--L--0--L--0--0--0--0--0----|
--L--0--0--0--0--0--0--0--0--/7\----|--0--L--0--L--0--0--0--0--0----|


     PM    PM                                                             
  E  S  E  S  E   S  S  S  S S S S S    H         S  S  S  S  S  S  S  S  
-------------------------------------|-----------22-17-------------------|
-------------------------------------|-----------------18----------------|
-----------------14-14-14-14-9-9-9-9-|--------------------19-------------|
--L---------------x--x--x--x-x-x-x-x-|-----------------------19----------|
--L--------------12-12-12-12-7-7-7-7-|--------------------------20-19-17-|
--L--0--0--0--0----------------------|-----------------------------------|


   S  S  S  S  S  S  S  S  S  S  S  S  S  S  S  S  
--22-17-------------------------------------------|
--------18----------------------------------------|
-----------19-------------19-14----------------19-|
--------------19----------------15----15-17-19----|
-----------------20-19-17----------17-------------|
--------------------------------------------------|


   S  S  S  S  S  S  S  S  S  S  S  S  S  S  S  S  
--21-17-------------------------------------------|
--------17----------------------------------------|
-----------18-------------18-14-------------------|
--------------19----------------14----14-19-14----|
-----------------19-18-17----------16----------16-|
--------------------------------------------------|


   S  S  S  S  S  S  S  S  S  S  S  S  S  S  S  S  
--21-17-------------------------------------------|
--------17----------------------------------------|
-----------18-------------18-14-------------------|
--------------19----------------14----14-19-14----|
-----------------19-18-17----------16----------16-|
--------------------------------------------------|


   S  S  S  S  S  S  S  S  S  S  S  S  S  S  S  S  
--22-17-------------------------------------------|
--------18----------------------------------------|
-----------19-------------19-14----------------19-|
--------------19----------------15----15-17-19----|
-----------------20-19-17----------17-------------|
--------------------------------------------------|


   S  S  S  S  S  S  S  S  S  S  S  S  S  S  S  S  
--22-17-------------------------------------------|
--------18----------------------------------------|
-----------19-------------19-14----------------19-|
--------------19----------------15----15-17-19----|
-----------------20-19-17----------17-------------|
--------------------------------------------------|


   S  S  S  S  S  S  S  S  S  S  S  S  S  S  S  S  
--21-17-------------------------------------------|
--------17----------------------------------------|
-----------18-------------18-14-------------------|
--------------19----------------14----14-19-14----|
-----------------19-18-17----------16----------16-|
--------------------------------------------------|


   S  S  S  S  S  S  S  S  S  S  S  S  S  S  S  S    W                 
--21-17-------------------------------------------|-------------------|
--------17----------------------------------------|-------------------|
-----------18-------------18-14-------------------|-------------------|
--------------19----------------14----14-19-14----|--0----------------|
-----------------19-18-17----------16----------16-|--0----------------|
--------------------------------------------------|--0----------------|


  W                   W                   W                                     
-------------------|-------------------|-------------------|-------------------|
-------------------|-------------------|-------------------|-------------------|
-------------------|-------------------|-------------------|-------------------|
--L----------------|--L----------------|--L----------------|-------------------|
--L----------------|--L----------------|--L----------------|-------------------|
--L----------------|--L----------------|--L----------------|-------------------|


-------------------|-------------------|-------------------|
-------------------|-------------------|-------------------|
-------------------|-------------------|-------------------|
-------------------|-------------------|-------------------|
-------------------|-------------------|-------------------|
-------------------|-------------------|-------------------|


-------------------||
-------------------||
-------------------||
-------------------||
-------------------||
-------------------||


Duration Legend
---------------
W - whole
H - half
Q - quarter
E - 8th
S - 16th
T - 32nd
X - 64th
. - note dotted
|-n-|  - n-tuplets


Tablature Legend
----------------
L - tied note
x - dead note
g - grace note
(n) - ghost note
> - accentuded note
NH - natural harmonic
AH - artificial harmonic
TH - tapped harmonic
SH - semi harmonic
PH - pitch harmonic
h - hammer on
p - pull off
b - bend
br - bendRelease
pb - preBend
pbr - preBendRelease
brb - bendReleaseBend
\n/ - tremolo bar dip
\n - tremolo bar dive
-/n - tremolo bar Release up
/n\ - tremolo bar inverted dip
/n - tremolo bar return
-\n - tremolo bar Release down
S - shift slide
s - legato slide
/ -  slide into from below or out of upwards
\ -  slide into from above or out of downwards
~ - vibrato
W - wide vibrato
tr - trill
TP - tremolo picking
T - tapping
S - slap
P - pop
< - fade in
^ - brush up
v - brush down


That is all! I hope this helped, and be sure to check out my cover if you are
having problems with the tab. Thanks, oh and one last thing... ROCK OUT!!!!
Добавлено: 02.07.2013
Другие материалы по этой песне:
  • Аккорды и текст

Страница создана 02.07.2013
http://primanota.ru/heartist/nothing-you-didnt-deserve-chords.htm
Привет, Гость.
Предлагаем пройти революционный курс по гитаре.
Подарок от PrimaNota.Ru, забирай!