PrimaNota.ru - самый крупный в мире бесплатный архив песенных текстов, аккордов, табулатур и нот


Heart - Heartless - текст песни, таба, бас-таба, видео

Регистрация Запомнить меня
Войти через:  Facebook Google Twitter Vk Yandex Mail.ru

Heart - Heartless - текст песни, таба, бас-таба, видео

Печатать
Просмотров: 170
Авторы: Ann Wilson, Nancy Wilson

Artist: Heart
Song: Heartless
Album: Magazine

Intro:
E-------0-------0---(12)--(7)--|
B------0--------0---(12)--(7)--|
G-----6------6--4---(12)--(7)--|
D----7------7-7-5---(12)--(7)--|pick around a little with this
A---7------7----5---(12)--(7)--|
E--5------5-----3---(12)--(7)--|

Intro/Riff/Verse: 
E-----------------------------|------------------------------------------|
B-----------------------------|------------------------------------------|
G-----------------------------|------------------------------------------|
D--2-2---4-4---5--4--2--------|------------------------------------------|
A--2-2---4-4---5--4--2--------|-----2-2--4-4--5----4-4--5-4--2-2--4-4--5-|
E-----------------------------|-----0-0--0-0--0-3b-0-0--0-0--0-0--0-0--0-|

Verse 1:
Well… The doctor said “come back again next week 
‘cause I think that you need me.”
All she could do was cry, like she wanted to die
"Doctor when can you see me?"

Prechorus:
‘cause there's a guy out there
And seems like he's everywhere
And it just ain't fair!
E--x---x---
B--x---x---
G--5---7---
D--5---7---
A--3---5---
E--x---x---
                      *(high pitched slide-Roger)
                            *A|--12\8--|     
Chorus: (Nancy's Part)
E-------------------3-3-3---*|-------------------------------|
B-------------------3-3-3---*|-------------------------------|
G----9--9--9--------4-4-4---*|-----5--5----------------------|
D----9--9--9-----0--5-5-5---*|-----5--5----------5-----------|
A----7--7--7--1-2---5-5-5---*|-----3--3--3-2-1-0---3-4-------|
E-------------------3-3-3---*|------------------------2-1~---|
    (heartless)    (heartless)     Never out of control
Just Heartless!     Heartless!

                    G                                   A5
E-------------------3-3-3-------------------------------x---x---x--|
B-------------------3-3-3-------------------------------x---x---x--|
G--9--9--9----------4-4-4--------5--5-------------------2---2---2--|
D--9--9--9------0---5-5-5--------5--5-------------------2---2---2--|
A--7--7--7---1-2----5-5-5--------3--3-------------------0---0---0--|
E-------------------3-3-3-------------------------------x---x---x--|
(heartless)        (heartless)   Singin' in the name of Rock n' Roll
Heartless!         Heartless!


E-------------------3-3-3--------------0---------------------------|
B-------------------3-3-3---------------0--------------------------|
G--9--9--9----------4-4-4----------------4-------------------------|
D--9--9--9------0---5-5-5-----------------2------------------------|
A--7--7--7---1-2----5-5-5------------------0-----------------------|
E-------------------3-3-3-------------------0----------------------|
(heartless)        (heartless)   I never realized the way love dies
Heartless!         Heartless!

E---------3------------2----|
B---------3------------3----|
G---------4------------4----|
D---------5------------4----|
A---------5------------2----|
E---------3------------2----|
  When it crucify it's soul  yeah..

riff

Verse 2

Chorus:
Heartless-Heartless! never out of control
Heartless-Heartless! You keep on singin' in the name of rock and roll
Heartless-Heartless! it's so cool to be cold
I never realized, the way love dies when you crucify it's soul

Interlude:
***Ann + Nancy vocal harmonies***
(breakdown) oooooooo (repeat 4)

Roger + Nancy harmony solo

Roger Fisher's solo:
E----------------------------------------------|
B----------------------------------------------|
G--7-7p5-4h5-4-4-5-4-5\7~||-9/6-6/2------------|
D-------------5---------------------1h2p1h2p1--| played simultaneously
A----------------------------------------------|
E----------------------------------------------|

Nancy Wilson's solo: 
E----------------------------------------------------------------------|
B--15-15p13-12h13-12--12-13-12-13\15~-||--17/14-14/10-10/5--2h3p2h3p2--|
G-------------------12-------------------------------------------------|
D----------------------------------------------------------------------|
A----------------------------------------------------------------------|
E----------------------------------------------------------------------|

Chorus

~=vibrato
p=pull off
h=hammer on
||=brief pause
\=slide up (to the right)
/=slide down (to the left)
()=harmonics
Добавлено: 20.10.2013
Другие материалы по этой песне:

Страница создана 28.05.2012
http://primanota.ru/heart/heartless-chords.htm
Привет, Гость.
Предлагаем пройти революционный курс по гитаре.
Подарок от PrimaNota.Ru, забирай!