PrimaNota.ru - самый крупный в мире бесплатный архив песенных текстов, аккордов, табулатур и нот


Heart - Devil Delight - текст песни, бас-таба, видео

Регистрация Запомнить меня
Войти через:  Facebook Google Twitter Vk Yandex Mail.ru

Heart - Devil Delight - текст песни, бас-таба, видео

Печатать
Просмотров: 68
Авторы: Ann Wilson, Nancy Wilson

-----------------------------------------------------------------------------------------------
                                   DEVIL DELIGHT - Heart
-----------------------------------------------------------------------------------------------
Tabbed by: WalterBrow (WB-Bass)
E-mail: walterbrowbass@gmail.com

Video - Bass Cover: https://www.youtube.com/watch?v=ByMd2ghFpxg

Tuning: Standard (E-A-D-G)

Intro part 1 (00:00)
G|--------------------------------------------------------------------------------------------|
D|-7\--------7-5-7-5--------------5--------7-5-7-5--------------------------------------------|
A|----7~-7-7---------7~-7-7---5-----7~-7-7---------7~-----------------------------------------|
E|--------------------------7---7---------------------5-6-7-5-6-------------------------------|

Intro part 2 (00:17)
G|--------------------------------------------------------------------------------------------|
D|--------7-5-7-5--------------5--------7-5-7-5-----------------------------------------------|
A|-7~-7-7---------7~-7-7---5-----7~-7-7---------7~--------------------------------------------|
E|-----------------------7---7---------------------5-6-7-5-6----------------------------------|

"Come on down..." (00:33)
G|--------------------------------------------------------------------------------------------|
D|--------7-5-7-5--------------5--------7-5-7-5-----------------------------------------------|
A|-7~-7-7---------7~-7-7---5-----7~-7-7---------7~--------------------------------------------|
E|-----------------------7---7----------------------------------------------------------------|

"Darkness dancers..." (00:49)
G|--------------------------------------------------------------------------------------------|
D|-5-5-5-----5-5-7-7-7-----7-7-9-9\5~-5-7-7-7-7--------7\-----3------5----9-9\5~-5-7-7-7-7----|
A|----------------------------------------------7~---------------7-7---7~------------------7~-|
E|-------3-3-----------5-5-------------------------5-5----1-1---------------------------------|

"Just my devil..." (01:27)
G|--------------------------------------------------------------------------------------------|
D|-5-5----3-3---------------------------------------------------------------------------------|
A|--------------------------------------------------------------------------------------------|
E|-----3~-----1~------------------------------------------------------------------------------|

"Delight..." (01:36)
G|--------------------------------------------------------------------------------------------|
D|--------7-5-7-5--------------5--------7-5-7-5-----------------------------------------------|
A|-7~-7-7---------7~-7-7---5-----7~-7-7---------7~-7/19-19-19-19\-----------------------------|
E|-----------------------7---7----------------------------------------------------------------|

"I've seen those midnight..." (01:51)
G|--------------------------------------------------------------------------------------------|
D|--------7-5-7-5--------------5--------7-5-7-5-----------------------------------------------|
A|-7~-7-7---------7~-7-7---5-----7~-7-7---------7~-7-7----------------------------------------|
E|-----------------------7---7----------------------------------------------------------------|

He got those sexy (02:07)
G|--------------------------------------------------------------------------------------------|
D|-5-5-5-----5-5-7-7-7-----7-7-9-9\5~-5-7-7-7-7--------7\-----3------5----9-9\5~-5-7-7-7-7----|
A|----------------------------------------------7~---------------7-7---7~------------------7~-|
E|-------3-3-----------5-5-------------------------5-5----1-1---------------------------------|

"Just my devil..." (02:46)
G|--------------------------------------------------------------------------------------------|
D|-5-5----3-3---------------------------------------------------------------------------------|
A|--------------------------------------------------------------------------------------------|
E|-----3~-----1~------------------------------------------------------------------------------|

"Delight..." (02:54)
G|--------------------------------------------------------------------------------------------|
D|--------7-5-7-5------------7-5-7-5-----------7-5-7-5------------7-5-7-5---------------------|
A|-7~-7-7---------7~--7~-7-7---------7~-7~-7-7---------7~--7~-7-7---------7~------------------|
E|--------------------------------------------------------------------------------------------|

SOLO (03:23)
G|----------------9/11---------7/9------------------------------------------------------------|
D|-5-7-8-9~-11/13------7~-9/11-----5-5----3-3-------------------------------------------------|
A|--------------------------------------------------------------------------------------------|
E|-------------------------------------3~-----1~----------------------------------------------|

(03:40)
G|--------------------------------------------------------------------------------------------|
D|--------7-5-7-5--------------5--------7-5-7-5-----------------------------------------------|
A|-7~-7-7---------7~-7-7---5-----7~-7-7---------7~-7/19-19-19-19\-----------------------------|
E|-----------------------7---7----------------------------------------------------------------|

"Lover and fool..." (03:56)
G|--------------------------------------------------------------------------------------------|
D|--------7-5-7-5--------------5--------7-5-7-5-----------------------------------------------|
A|-7~-7-7---------7~-7-7---5-----7~-7-7---------7~-7-7----------------------------------------|
E|-----------------------7---7----------------------------------------------------------------|

"On your toes..." (04:12)
G|--------------------------------------------------------------------------------------------|
D|-5-5-----5-5-7-7-----7-7-5-5-----5-5-7-7-----7-7--------------------------------------------|
A|--------------------------------------------------------------------------------------------|
E|-----3-3---------5-5---------3-3---------5-5------------------------------------------------|

"MY DEVIL..." (04:43)
G|--------------------------------------------------------------------------------------------|
D|-5-5-5-5--5--7-7-7-7--7-7--5-5-5-5--5--7-7-7-7--7-7--5-5-5-5--------------------------------|
A|--------------------------------------------------------------------------------------------|
E|--------------------------------------------------------------------------------------------|


| /  slide up
| \  slide down
| ~  let ring

===============================================================================
Добавлено: 09.06.2016
Другие материалы по этой песне:
  • Аккорды и текст

Страница создана 15.05.2012
http://primanota.ru/heart/devil-delight-chords.htm
Привет, Гость.
Предлагаем пройти революционный курс по гитаре.
Подарок от PrimaNota.Ru, забирай!