PrimaNota.ru - самый крупный в мире бесплатный архив песенных текстов, аккордов, табулатур и нот


Heart - Bebe Le Strange - текст песни, таба, бас-таба, видео

Регистрация Запомнить меня
Войти через:  Facebook Google Twitter Vk Yandex Mail.ru

Heart - Bebe Le Strange - текст песни, таба, бас-таба, видео

Печатать
Просмотров: 220
Уроки эстрадного вокала в Санкт-Петербурге
Авторы: Ann Wilson, Roger Fisher, Nancy Wilson, Sue Ennis

-
1.                           BeBe La Strange- Heart
-------------------------------------------------------------------------------
You requested it; well here it is.The chorus is a 
combining of Nancy and Howard's tracks. Hope you 
can follow the my directions, but with the 
recording you should not have a problem. 
I might later post a guitar pro note for 
note transcription for this song.
Tabbed by: Duane Baldwin
Email: duaneandjulie@gmail.net
Tuning: EADGBE
Intro:This is played by a second guitar on the verse
e|----------------------------------------------------------|
B|----------------------------------------------------------|
G|----------------------------------------------------------|
D|----------------------0h2-------------------------0-------|
A|------------------------------------------------------h4--|
E|-0-0-0-0-----0-0-0-0---------0-0-0-0----0-0-0-0-----------|
Verse
e|---------------------------------------------------------------------------|
B|---------------------------------------------------------------------------|
G|----9-------9---9-------9---9 \------5-------5----5-------5---5/-------7---|
D|----9-------9---9-------9---9 \------5-------5----5-------5---5/-------7---|
A|--2/-7-------7---7-------7---7 \------3-------3----3-------3---3/------5---| 
E|---------0-----------0------------0-------0------------0------------0------|

e|---------------------------|-----------------------------------------------|
B|---------------------------|-----------------------------------------------|
G|------7----7-------7----7--|-----------------------------------------------|
D|------7----7-------7----7--|-------5--7--6--------------0--2--0------------|
A|------5----5-------5----5--|-5--7-----------7--5--0--2-----------2--1--0---|
E|-0-------------0-----------|----------------------------------------------3|

e|---------------------------------------------------------------------------|
B|---------------------------------------------------------------------------|
G|----9-------9---9-------9---9 \------5-------5----5-------5---5/-------7---|
D|----9-------9---9-------9---9 \------5-------5----5-------5---5/-------7---|
A|--2/7-------7---7-------7---7 \------3-------3----3-------3---3/-------5---|
E|--------0-----------0------------0-------0------------0------------0-------|

e|---------------------------|------------------------------------------|
B|---------------------------|--7/9---9h10---10---10--9--9--9--9h10--9--|
G|------7----7-------7----7--|--7/9---9------9----9---9--9--9--9-----9--|
D|------7----7-------7----7--|--7/9---9h11---11---11--9--9--9--9h11--9--|
A|------5----5-------5----5--|------------------------------------------|
E|-0-------------0-----------|------------------------------------------|

e|---------------------------------------12---12--12--|
B|--7/9---9h10---10---10--9--9--9--9h10--12---12--12--|
G|--7/9---9------9----9---9--9--9--9-----9---9---9----|
D|--7/9---9h11---11---11--9--9--9--9h11--9---9---9----|
A|----------------------------------------------------|
E|----------------------------------------------------|
Chorus
e|--------------------------------------|---------------------------------|
B|--------------------------------------|---------------------------------|
G|--------------------------------------|--------------4-----------4------|
D|--------------------------------------|-----------------3-----------3---|
A|--2--2--4--4--2--2--4--4--2--2--4--2--|--2--4--5--5--------5--5---------|
E|--0--0--0--0--0--0--0--0--0--0--0--0--|--0--2--3--3--------3--3---------|

e|---------------------------|-----------------------------------------------|
B|---------------------------|-----------------------------------------------|
G|--------4-----------4------|--------3----------3---------3----------3------|
D|-----------3-----------3---|----------2----------2----------2----------2---|
A|--5--5--------5--5---------|--4--4-------4--4-------4--4-------4--4--------|
E|--3--3--------3--3---------|--2--2-------2--2-------2--2-------2--2--------|

e|---------------------------------------1--0--|--------------------------------|
B|---------------------------------------1--0--|--------------------------------|
G|--4--4--4--4--5--4--5--2--2---4--4--3--2--1--|--------------------------------|
D|--4--4--4--4--5--4--5--2--2---5--5--4--3--2--|--------------------------------|
A|--2--2--2--2--3--2--3--0--0---5--5--4--3--2--|--2--2--2--2--2--2--2--2--2--2--|
E|------------------------------3--3--2--1--0--|--0--0--0--0--0--0--0--0--0--0--|
Bridge/outro                                        Repeat
e|----------------------0--0--0--|----------------------0--0--0--|
B|----------------------0--0--0--|----------------------0--0--0--|
G|--5/6--6--6--6--6--6--1--1--1--|--5/6--6--6--6--6--6--1--1--1--|
D|--6/7--7--7--7--7--7--2--2--2--|--6/7--7--7--7--7--7--2--2--2--|
A|--6/7--7--7--7--7--7--2--2--2--|--6/7--7--7--7--7--7--2--2--2--|
E|--4/5--5--5--5--5--5--0--0--0--|--4/5--5--5--5--5--5--0--0--0--|
                                                    Repeat
e|-------------------------------|-------------------------------|
B|-------------------------------|-------------------------------|
G|--6/7--7--7--7--7--7--2--2--2--|--6/7--7--7--7--7--7--2--2--2--|
D|--6/7--7--7--7--7--7--2--2--2--|--6/7--7--7--7--7--7--2--2--2--|
A|--4/5--5--5--5--5--5--0--0--0--|--4/5--5--5--5--5--5--0--0--0--|
E|-------------------------------|-------------------------------|



| /  slide up
| \  slide down
| h  hammer-on
| p  pull-off
| ~  vibrato
| +  harmonic
| x  Mute note
===============================================================================
Intro
1st Verse
E5                               C5
Got to be you reading my letter not your hired hand
    D5                                 N.C.   
I don't know how to say it no better I love you and the band
        E5                            C5
Never heard a rockin like you could howlin like you can
         D5                                     D/E    A/E      E  D/E A/E  E
Well it gets me thinkin'of Johnny B. Goode and you know you it no man

Chorus
E5      E6        E5      E6       E5         E6    E5     E5 F#5        
When I heard you play I knew your name should be changed
G7
We're all dog panicked and you are to blame
F#7                                               B
Everybody ought to call you Be be Le Strange you look so insane
    C    B  C  A    G    F#  F    E
We gave you a name Be be Le Strange   Come on Be be
Bridge
Ab  A  E  Ab A E  Ab A E Ab A E

Db  D     A
   Oh Rock Be be
Db  D           A
   Oh rock arock a Be be
Ab A       E
   Oh Rock Be be
Ab  A         E
   Oh rock arock a Be be Be be
2nd verse
E5                                  C5       
I wish I knew what your really like a touch so shy and fine
        D5                                       N.C.
But the way you move with that guitar just gives me other signs
    E5                                   C5             
Here's my number give me a sign call me back if this gets through
       D5                            D/E   A  E      A E   D/E  A E   A E
I said Be be oh Be be Be be I would never say no to you
Chorus
E5      E6        E5      E6       E5         E6    E5     E5 F#5        
When I heard you play I knew your name should be changed
G7
Everybody ought to call you Be be Le Strange
F#7                                              B
Under my skin you got my mind rearranged you're so insane
C  B     C  A       G     F#  E     
Be be,s so strange  Be be La Strange
Outro
Ab  A  E  Ab A E  Ab A E Ab A E
Repeat this section 5 times
Db  D     A
    Oh Rock Be be
Db  D           A
    Oh rock arock a Be be
Ab A       E
   Oh Rock Be be
Ab  A         E
   Oh rock arock a Be be Be be
Добавлено: 18.04.2012
Другие материалы по этой песне:

Страница создана 18.04.2012
http://primanota.ru/heart/bebe-le-strange-chords.htm
Привет, Гость.
Предлагаем пройти революционный курс по гитаре.
Подарок от PrimaNota.Ru, забирай!