PrimaNota.ru - самый крупный в мире бесплатный архив песенных текстов, аккордов, табулатур и нот


Heart In Hand - Getting Married In Vegas - текст песни, таба, видео

Регистрация Запомнить меня
Войти через:  Facebook Google Twitter Vk Yandex Mail.ru

Heart In Hand - Getting Married In Vegas - текст песни, таба, видео

Печатать
Просмотров: 198
Уроки эстрадного вокала в Санкт-Петербурге
Heart In Hand - Getting Married In Vegas

Its not complete and slightly wrong in places, but this tab gives a rough outline 
of how they play it.

Tuning: Drop B (B F# B E G# C#)

Intro X2

c#|----------------------------------------------------------------------|
G#|----------------------------------------------------------------------|
 E|--16-161616-16-161616-16-161616--16-14-16-17-171717-17-171717---------|
 B|----------------------------------------------------------------------|
F#|--14-141414-14-141414-14-141414--14-12-14-15-151515-15-151515---------|
 B|----------------------------------------------------------------------|

c#|-----------------------------------------------------|
G#|-----------------------------------------------------|
 E|--14-141414-14-141414-9-999-9-999-9-999--------------|
 B|-----------------------------------------------------|
F#|--12-121212-12-121212-7-777-7-777-7-777--------------|
 B|-----------------------------------------------------|


c#|--------------------------------------------------------|
G#|--------------------------------------------------------|
 E|--12-121212-11-1111-11-11111-11-111111---11-111111------|
 B|--------------------------------------------------------|
F#|--10-101010-9--999--9--999---9--999------9--999---------|
 B|--------------------------------------------------------|


Verse X2

c#|-----------------------------------------------------|
G#|-----------------------------------------------------|
 E|-------------------0--------------------0------------|
 B|-----------------4---4----------------4--4-----------|
F#|-2-2----2-2--2/5-------2-2---2-2--2/5----------------| 
 B|-2-2----2-2------------2-2---2-2---------------------|


c#|------8-----7h8p7-7--7-8-10---5-7h8p7h5p7---5---7h8p7h5p7----|
G#|----7--7---------9--9------------------------------------7---|
 E|--55-----55-----------------77-7----------77--7--------------|
 B|-------------------------------------------------------------|
F#|-------------------------------------------------------------|
 B|-------------------------------------------------------------|


First Guitar

c#|----------------------------------------------------------------------|
G#|----------------------------------------------------------------------|
 E|----------------------------------------------------------------------|
 B|----------------------------------------------------------------------|
F#|-22-22-2-2222-22-2-2-2-222-00-00-0-000-00-000-------------------------|
 B|-22-22-2-2222-22-2-2-2-222-00-00-0-000-00-000-------------------------|

Second Guitar

c#|----------------------------10--------------10------------------------|
G#|---------------------------8--8h7p8h7-----8---8h7p8h7-----------------|
 E|-------------------------------------9p7-------------9p7-9/11/12------|
 B|---------------------------------------0---------------0--------------|
F#|---------------------------------------------------------7/9/10-------|
 B|----------------------------------------------------------------------|

Then..Both guitars..

c#|---------10------------------------------------------------------------|
G#|--------8--8p7h8p7-----------------------------------------------------|
 E|------------------9p7-----------------9---9/11-11----------------------|
 B|--------------------0--------------------------------------------------|
F#|--00000---------------000-000-000-0-0-7-0-7/9--9--2-222-222-2-2--------|
 B|--00000---------------000-000-000-0-0---0---------2-222-222-2-2--------|


Pre-Chorus X 2

c#|--------------------------------|
G#|--------------------------------|
 E|--------------------------------|
 B|--------------------------------|
F#|--22222222--33333333--00000000--|
 B|--22222222--22222222--00000000--|


c#|------------------------------------------------------------------------|
G#|---2p0-----2p0----2p0---------------------------------------------------|
 E|------------------------------------------------------------------------|
 B|----------------------7h9----7h9--7h9-------10h12-------10h12----10h12--|
F#|222----2222----22-------------------------------------------------------|
 B|222----2222----22--555---5555---55---101010-----10101010-----1010-------|



c#|-----------------------------------------------|
G#|----5-7h8p7p5h7---7-7h8p7p5--------------------|
 E|---------------------------7-------------------|
 B|--77------------77-----------------------------|
F#|-----------------------------------------------|
 B|-----------------------------------------------|

Then these chords..(work out the rhythm) x2

c#|---------------------------------------|
G#|---------------------------------------|
 E|-16-12-14-11---------------------------|
 B|---------------------------------------|
F#|-14-10-12-9----------------------------|
 B|---------------------------------------|


c#|-0------------------------------------|
G#|--3-----------------------------------|
 E|---0---0-----------------0------------|
 B|------4------------------4-x3---------|
F#|-----5---2-x12-3-x6-5-x6-5------------|
 B|---------2-----2----0-----------------|

c#|------------------------------------------------------|
G#|------------------------------------------------------|
 E|-5-------7----9-----12--------------------------------|
 B|---x6------x6---x6---------10----0----2----5----------|
F#|-3-------5----7-----10-----10-x6-0-x6-2-x6-5-x6-------|
 B|---------------------------10----0----2----5----------|

c#|--------------------------------------------|
G#|--------------------------------------------|
 E|-----------7--------------------------------|
 B|-------7-9--9-7-----------------------------|
F#|--7-10----------0-x6-2-x6-5-x6--------------|
 B|----------------0----2----5-----------------|

Then..

c#|-----------------------------------------------|
G#|-----------------------------------------------|
 E|--16-12-14-11---16-19-14-12-14-11--------------|
 B|-----------------------------------------------|
F#|--14-10-12-9----14-17-12-10-12-9---------------|
 B|-----------------------------------------------|

With this being played by the other guitarist..

c#|---10--------10-------------------------------|
G#|------8----8----8------7h8p7h8----------------|
 E|--------11--------11-9------------------------|
 B|----------------------------------------------|
F#|----------------------------------------------|
 B|----------------------------------------------|

Thats the basis of what i have so far.

Thanks.

http://www.myspace.com/heartinhandband
Добавлено: 11.03.2012
Вам также может быть интересно:
Другие материалы по этой песне:
  • Аккорды и текст

Страница создана 11.03.2012
http://primanota.ru/heart-in-hand/getting-married-in-vegas-chords.htm
Привет, Гость.
Предлагаем пройти революционный курс по гитаре.
Подарок от PrimaNota.Ru, забирай!