PrimaNota.ru - самый крупный в мире бесплатный архив песенных текстов, аккордов, табулатур и нот


Headshot - Eraser - таба, видео

Регистрация Запомнить меня
Войти через:  Facebook Google Twitter Vk Yandex Mail.ru

Headshot - Eraser - таба, видео

Печатать
Просмотров: 110
Уроки эстрадного вокала в Санкт-Петербурге
Eraser by Headshot 
From the album "Diseased"
Tuning: DGCFAD (Standard D)

Legend
L - tied note
x - dead note
h - hammer on/pull off
b - bend
s - slide
~ - vibrato
g - ghost note
> - accentuated note
t - trill
M - palm mute
. - staccato
P - popping (bass)
S - slapping (bass)
+ - tapping
W - wide vibrato
< - fade in
w - whammy bar
= - tremolo picking
v - brush up
^ - brush down
V - pick stroke up
n - pick stroke down

Intro Riff:

D |----------------------------------------------------|
A |----------------------------------------------------|
F |----------------------------------------------------| x3
C |----------------------------------------------------|
G |----------------------------------------------------|
D |--3--2--1--0--3--2--1--0--3--2--1--0--3-------------|

----------------------------------------------------|
----------------------------------------------------|
----------------------------------------------------|
----------------------------------------------------|
--------------------------------------5-----4--3----|
--3--2--1--0--3--2--1--0--3--2--1--0--3-----2--1----|

Verse Riff 1:

----------------------------------------------------|
----------------------------------------------------|
----------------------------------------------------|
----------------------------------------------------|
--------7-----7h-8-----7h-10----7h-8-----7h-8h-11---|
--0M-0M----0M-------0M-------0M-------0M------------|


----------------------------------------------------|
----------------------------------------------------|
----------------------------------------------------|
----------------------------------------------------|
--------7-----7h-8-----7h-10----7h-8-----7h-11h10---|
--0M-0M----0M-------0M-------0M-------0M------------|

Verse Riff 2:

----------------------------------------------------|
----------------------------------------------------|
----------------------------------------------------| x3
----------------------------------------------------| 
----------------------------------------------------|
--4M-4M-4M-4M-4M-4M-4M-4M-4M-4M-4M-4M-4M-4M-4M-4M---|

------------------------|
------------------------|
------------------------|
------------------------|
------------6---5---3---|
---4M-4M-4M-4---3---1---|

Variation of the ending of Verse riff 2 (Ending of 2nd Verse)

------------------------|
------------------------|
------------------------|
------------------------|
------------6---5---3---|
---4M-4M-4M-4---3---1---|

------------------------------------------------|
------------------------------------------------|
------------------------------------------------|
------------------------------------------------|
--6--5--3--6--5--3--7--6--5--9------------------|
--4--3--1--4--3--1--5--4--3--7------------------|

Variation of the intro riff (After the scream:
ERASEEEEEEEEEEEEEEEEEEEEEEEEEEEEEER

----------------------------------------------------|
----------------------------------------------------|
----------------------------------------------------|
----------------------------------------------------|
----------------------------------------------------|
--3--2--1--0--3--2--1--0--3--2--1--0--3--3M-3M-3M---|


----------------------------------------------------|
----------------------------------------------------|
----------------------------------------------------|
----------------------------------------------------|
----------------------------------------------------|
--3--2--1--0--3--2--1--0--3--2--1--0--7s------------|


----------------------------------------------------|
----------------------------------------------------|
----------------------------------------------------|
----------------------------------------------------|
----------------------------------------------------|
--3--2--1--0--3--2--1--0--3--2--1--0--3--3M-3M-3M---|


----------------------------------------------------|
----------------------------------------------------|
----------------------------------------------------|
----------------------------------------------------|
----------------------------------------------------|
--3--2--1--0--3--2--1--0--3--2--1--0--7s------------|

Variation of the Ending of Verse riff 1 (Bridge to last Verse)

----------------------------------------------------|----||
----------------------------------------------------|----||
--9--------10-------11-------12---------------------|----||
-----8--------9--------10-------11------------------|----||
--------7--------8--------9--------10-5-----4--3----|----||
--------------------------------------3-----2--1----|----||

http://www.headshot-inc.de/
Добавлено: 03.08.2013
Другие материалы по этой песне:
  • Аккорды и текст

Страница создана 03.08.2013
http://primanota.ru/headshot/eraser-chords.htm
Привет, Гость.
Предлагаем пройти революционный курс по гитаре.
Подарок от PrimaNota.Ru, забирай!