PrimaNota.ru - самый крупный в мире бесплатный архив песенных текстов, аккордов, табулатур и нот


Head Like A Kite - Noisy At The Circus - таба, видео

Регистрация Запомнить меня
Войти через:  Facebook Google Twitter Vk Yandex Mail.ru

Head Like A Kite - Noisy At The Circus - таба, видео

Печатать
Просмотров: 80
----------------------------------------------------------------------------
                             NOISY AT THE CIRCUS - Head Like A Kite
-------------------------------------------------------------------------------
Tabbed by: Dan
Email: numchucksteve@gmail.com

Hey, this is my first tab, but it sounds right.

Standard Tuning

Main Riffs (Guitar 1):

e|-------------------------------------------------------------------------|
B|-------------------------------------------------------------------------|
G|--9--9----9/12--12-------------------------------------------------------|
D|--9--9----9/12--12----------7--7--7------10--10--------------------------|
A|--7--7----7/10--10----------7--7--7------10--10--------------------------|
E|----------------------------5--5--5-------8---8--------------------------|

This is played four times until guitar 2 comes in, then switches to this (almost the 
thing)

e|-------------------------------------------------------------------------|
B|-------------------------------------------------------------------------|
G|--9--9--9----12--12--12--------------------------------------------------|
D|--9--9--9----12--12--12----7--7--7----10--10--10-------------------------|
A|--7--7--7----10--10--10----7--7--7----10--10--10-------------------------|
E|---------------------------5--5--5-----8---8---8-------------------------|

It goes back to the first riff when she starts singing, and follows that pattern for the 
of the song

Lead Riff (Guitar 2):

e|-------------------------------------------------------------------------|
B|-------------------------------------------------------------------------|
G|----7-9--7---------------------------------------------------------------|
D|------------9---5-7-5--2-------------------------------------------------|
A|-------------------------------------------------------------------------|
E|-------------------------------------------------------------------------|

This just comes in and out of the song.

And that's basically it, besides weird synth stuffs.


| /  slide up
| \  slide down
| h  hammer-on
| p  pull-off
| ~  vibrato
| +  harmonic
| x  Mute note
===============================================================================
Добавлено: 22.02.2012
Другие материалы по этой песне:

Страница создана 22.02.2012
http://primanota.ru/head-like-a-kite/noisy-at-the-circus-chords.htm
Привет, Гость.
Предлагаем пройти революционный курс по гитаре.
Подарок от PrimaNota.Ru, забирай!