PrimaNota.ru - самый крупный в мире бесплатный архив песенных текстов, аккордов, табулатур и нот


Head Automatica - Solid Gold Telephone - текст песни, бас-таба, видео

Регистрация Запомнить меня
Войти через:  Facebook Google Twitter Vk Yandex Mail.ru

Head Automatica - Solid Gold Telephone - текст песни, бас-таба, видео

Печатать
Просмотров: 157
Уроки эстрадного вокала в Санкт-Петербурге
Artist: Head Automatica
Song: Solid Gold Telephone
Album: Decadence
Tabbed by: Peeve

Tuning: Standard

Verse Intro
G|--------------------------------|
D|------2-------2-----------------|
A|-00-3----00-3----00-3-5--00-3-5-|
E|--------------------------------|

G|--------------------------------|
D|------2-------2-----------------|
A|-00-3----00-3----00-3-5--00-3-5-|
E|--------------------------------|

Verse Outro
G|-----------------------------------------|
D|-----------------------------------------|
A|-00-3-4--00-3-4--00-3-5--5-5-5-5-5-5-5-5-|
E|-----------------------------------------|

Chorus
G|----------------------------------|
D|----------------------------------|
A|-5-0-5-0-5-4-5-0--5-0-5-0-5-4-5-0-|
E|----------------------------------|

G|----------------------------------|
D|----------------------------------|
A|-7-0-7-0-7-6-7-0--7-0-7-0-7-6-7-0-|
E|----------------------------------|

G|----------------------------------|
D|----------------------------------|
A|-5-0-5-0-5-4-5-0--5-0-5-0-5-4-5-0-|
E|----------------------------------|

G|-------------------|
D|-------------------|
A|-4-4-4-4-4-4-4-4-4-|
E|-------------------|

Verse Intro x2

Verse Outro

Chorus

Outro
G|----------------------------------|
D|----------------------------------|
A|-5-0-5-0-5-4-5-0--5-0-5-0-5-4-5-0-|
E|----------------------------------|

G|----------------------------------|
D|----------------------------------|
A|-7-0-7-0-7-6-7-0--7-0-7-0-7-6-7-0-|
E|----------------------------------|

G|----------------------------------|
D|----------------------------------|
A|-5-0-5-0-5-4-5-0--5-0-5-0-5-4-5-0-|
E|----------------------------------|

G|---------------------------------|
D|---------------------------------|
A|-4-3-4-0-4-3-4-0-4-3-4-0-4-3-4-0-|
E|---------------------------------|

G|----------------------------------|
D|----------------------------------|
A|-5-0-5-0-5-4-5-0--5-0-5-0-5-4-5-0-|
E|----------------------------------|

G|----------------------------------|
D|----------------------------------|
A|-7-0-7-0-7-6-7-0--7-0-7-0-7-6-7-0-|
E|----------------------------------|

G|----------------------------------|
D|----------------------------------|
A|-5-0-5-0-5-4-5-0--5-0-5-0-5-4-5-0-|
E|----------------------------------|

G|-------------------|
D|-------------------|
A|-4-4-4-4-4-4-4-4-4-|
E|-------------------|
Добавлено: 01.03.2012
Другие материалы по этой песне:
  • Аккорды и текст

Страница создана 01.03.2012
http://primanota.ru/head-automatica/solid-gold-telephone-chords.htm
Привет, Гость.
Предлагаем пройти революционный курс по гитаре.
Подарок от PrimaNota.Ru, забирай!