PrimaNota.ru - самый крупный в мире бесплатный архив песенных текстов, аккордов, табулатур и нот


Head Automatica - Shot In The Back - таба, видео

Регистрация Запомнить меня
Войти через:  Facebook Google Twitter Vk Yandex Mail.ru

Head Automatica - Shot In The Back - таба, видео

Печатать
Просмотров: 107
Уроки эстрадного вокала в Санкт-Петербурге
Band: Head Automatica                       
Song: Shot In The Back
Album: Popaganda

Intro (light distortion)
E--------------------------------------------------------|
B--------------------------------------------------------|
G------4-4-------6-6-----8b----8-------4-4-------4-4-----|
D--6---4-4--9----6-6---9------9---6----4-4--6----4-4-----|
A-4-4-6----7-7-4-----7-------9---4-4-6-----4-4-6---------|
E---------------------------7----------------------------|

E--------------------------------------------------------|
B--------------------------------------------------------|
G-6666666666666666---------------------------------------|
D-6666666666666666-77777777------------------------------|
A-4444444444444444-77777777------------------------------|
E------------------55555555------------------------------|

Verse
Guitar 1        x5             
E----------------|
B----------------|
G----------------|
D----------------|
A-6-6-6-7-4------|
E----------5-4b--|

Verse Con't
Guitar 1
E--------------------------------------------------------------------|
B--------------------------------------------------------------------|
G--------------------------------------------------------------------|
D--------------------------------------------------------------------|
A-6-6-6-7-4------------------------6-6-6-7-4-------------------------|
E----------5-4------------------------------5-4----------------------|

Piano Part 
E--------------17-16-------------------------------------------------|
B--------------------17161716-14----------------10-9-----------------|
G--------------------------------13-----------------9898-------------|
D--------------------------------------------------------11----------|
A----------------------------------------------------------11--------|
E--------------------------------------------------------------------|

Pre-Chorus
E--------------------------------------------------------|
B--------------------------------------------------------|
G--------------------------------------------------------|
D-6-6-6-7-999999-----------------------------------------|
A---------999999-----------------------------------------|
E---------777777-----------------------------------------|

Chorus
Both Guitars          x3
E---------------------|----------------------------------|
B-9-9999999-2-2222222-|----------15----------------------|
G-9-9999999-2-2222222-|---------x------------------------|
D-9-9999999-2-2222222-|--------9-------------------------|
A-7-7777777-0-0000000-|--------9-------------------------|
E---------------------|--------7-------------------------|

Verse
Guitar 1        x5             
E----------------|
B----------------|
G----------------|
D----------------|
A-6-6-6-7-4------|
E----------5-4b--|

Verse Con't
Guitar 1
E--------------------------------------------------------------------|
B--------------------------------------------------------------------|
G--------------------------------------------------------------------|
D--------------------------------------------------------------------|
A-6-6-6-7-4------------------------6-6-6-7-4-------------------------|
E----------5-4------------------------------5-4----------------------|

Piano Part 
E--------------17-16-------------------------------------------------|
B--------------------17161716-14----------------10-9-----------------|
G--------------------------------13-----------------9898-------------|
D--------------------------------------------------------11----------|
A----------------------------------------------------------11--------|
E--------------------------------------------------------------------|

Pre-Chorus
E--------------------------------------------------------|
B--------------------------------------------------------|
G--------------------------------------------------------|
D-6-6-6-7-999999-----------------------------------------|
A---------999999-----------------------------------------|
E---------777777-----------------------------------------|


Chorus
Both Guitars          x3
E---------------------|----------------------------------|
B-9-9999999-2-2222222-|----------15----------------------|
G-9-9999999-2-2222222-|---------x------------------------|
D-9-9999999-2-2222222-|--------9-------------------------|
A-7-7777777-0-0000000-|--------9-------------------------|
E---------------------|--------7-------------------------|

                      x3 
E---------------------|----------------------------------|
B-9-9999999-2-2222222-|----------15----------------------|
G-9-9999999-2-2222222-|---------x------------------------|
D-9-9999999-2-2222222-|--------9-------------------------|
A-7-7777777-0-0000000-|--------9-------------------------|
E---------------------|--------7-------------------------|

Break
Both Guitars                                             x4
E--------------------------------------------------------|
B--------------------------------------------------------|
G--x16-x16-----------------------------------------------|
D-7---9--------------------------------------------------|
A-7---9--------------------------------------------------|
E-5---7--------------------------------------------------|

Chorus
Both Guitars          x3
E---------------------|----------------------------------|
B-9-9999999-2-2222222-|----------15----------------------|
G-9-9999999-2-2222222-|---------x------------------------|
D-9-9999999-2-2222222-|--------9-------------------------|
A-7-7777777-0-0000000-|--------9-------------------------|
E---------------------|--------7-------------------------|

                      x3
E---------------------|----------------------------------|
B-9-9999999-2-2222222-|----------15----------------------|
G-9-9999999-2-2222222-|---------x------------------------|
D-9-9999999-2-2222222-|--------9-------------------------|
A-7-7777777-0-0000000-|--------9-------------------------|
E---------------------|--------7-------------------------|

Outro
Guitar 1
E---------|
B---------|
G-2-------|
D-2-------|
A-0-------|
E---------|

Guitar 2
E-----------------|
B-4-2-4-2-4-2-4---|
G-4-2-4-2-4-2-4---|
D-4-2-4-2-4-2-4-2-|
A-2-0-2-0-2-0-2-2-|
E---------------0-|
Добавлено: 28.05.2012
Другие материалы по этой песне:
  • Аккорды и текст

Страница создана 28.05.2012
http://primanota.ru/head-automatica/shot-in-the-back-chords.htm
Привет, Гость.
Предлагаем пройти революционный курс по гитаре.
Подарок от PrimaNota.Ru, забирай!