PrimaNota.ru - самый крупный в мире бесплатный архив песенных текстов, аккордов, табулатур и нот


Head Automatica - Scandalous - текст песни, бас-таба, видео

Регистрация Запомнить меня
Войти через:  Facebook Google Twitter Vk Yandex Mail.ru

Head Automatica - Scandalous - текст песни, бас-таба, видео

Печатать
Просмотров: 129
scandalous bass tab

4/4 time i think, with lots of triplets.

Standard tuning.

+ is a beat, ~ means hold previous note, 
/ and \ mean slide up and down respectively
(#) means keep holding this note from a previous measure

intro
------------|------------------------|------------------------|
------3~----|------------4~--------4-|3~--------3-------------|
6~----------|4~--------4-------------|------------6~----------|
------------|------------------------|------------------------|
+ - - + - -  + - - + - - + - - + - -  + - - + - - + - - + - -

------------------------|------------------------|
------------4-4-4~--4-4-|------------------------|
4-4-4~--4-4-------------|4-4-4~--4-4~--4-4~--4-4-|
------------------------|------------------------|

verse  (the first time around, play this twice)
--------------------3-3-|------------------------|
----------3-4~----4-----|3~----3-3-3---------3---|
4~----4-6---------------|------------6~----6---6-|
------------------------|------------------------|
+ - - + - - + - - + - -  + - - + - - + - - + - - 

------------------------|------------------------|
------------4~----4-4-4-|------------------------|
4~----4-4-4-------------|4-4-4-4-4-4-4-4-4-4-4-4-|
------------------------|------------------------|

prechorus 
------------------------|------------------------|
------------------------|------------------------|
4-4-4~--4-4-6-6-6~--6-6-|4-4-4~--4-4-6-6-6~--6-6-|
------------------------|------------------------|
+ - - + - - + - - + - -  + - - + - - + - - + - - 

------------------------|------------------------|
3-3-3~--3-3-4-4-4~--4-4-|------------------------|
------------------------|6~----------------------|
------------------------|------------------------|

chorus 
------------------------|--------------------8---|
------------------------|------------------11--11|
4-4-4~--4-4/9-9-9-9-9-9\|4-4-4~--4-4/9-9-9-------|
------------------------|------------------------|
+ - - + - - + - - + - -  + - - + - - + - - + - - 

------------------------|------------------------|
------------------------|------------------------|
4-4-4~--4-4/9-9-9-9-9-9\|6-6-6-6-6-6-6-6-6-6-6-6-|
------------------------|------------------------|

postchorus 1
------------------6~----|(6)~----------------|
------3~----4~----------|--------------------|
6~----------------------|--------------------|
------------------------|--------------------|
+ - - + - - + - - + - -   +  - - + - - + - -

then play:

verse once
prechorus once
chorus twice

then play:

bridge
------------|------------------------|------------------------|
------3~----|4-4-4-------4-4-4-------|------------------------|
6~----------|------------------------|4~----------------------|
------------|------------------------|------------------------|
+ - - + - -  + - - + - - + - - + - -  + - - + - - + - - + - - 

------5-5-5-------5-5-5-|------6-6-6-------6-6-6-|
3-3-3-------3-3-3-------|4-4-4-------4-4-4-------|
------------------------|------------------------|
------------------------|------------------------|

------------------------|------------------------|
4-4-4-------4-4-4-------|------------------------|
------------------------|4~----------------------|
------------------------|------------------------|

------5-5-5-------5-5-5-|------6-6-6-------6-6-6-|
3-3-3-------3-3-3-------|4-4-4-------4-4-4-------|
------------------------|------------------------|
------------------------|------------------------|

then play:
chorus twice

then the outro:

------------------------|------------------------|
------------------------|------------------------|
6~----8~----9~----------|6~----8~----9~----------|
------------------------|------------------------|
+ - - + - - + - - + - -  + - - + - - + - - + - - 

------------------------|------------------------|
------------------------|------------------------|
6~----8~----9~----------|9~----------------------|
------------------------|------------------------|

that's it

    -phkd
Добавлено: 16.07.2012
Другие материалы по этой песне:
  • Аккорды и текст

Страница создана 25.02.2012
http://primanota.ru/head-automatica/scandalous-chords.htm
Привет, Гость.
Предлагаем пройти революционный курс по гитаре.
Подарок от PrimaNota.Ru, забирай!