PrimaNota.ru - самый крупный в мире бесплатный архив песенных текстов, аккордов, табулатур и нот


Head Automatica - Razor - текст песни, таба, бас-таба, видео

Регистрация Запомнить меня
Войти через:  Facebook Google Twitter Vk Yandex Mail.ru

Head Automatica - Razor - текст песни, таба, бас-таба, видео

Печатать
Просмотров: 215
Song: The Razor
Artist: Head Automatica
Tabbed by LYNNNNN (lynn.tun@gmail.com, http://www.myspace.com/linty_fresh)

this is my first tab :D

Standard Tuning

KEY:
h - hammer-on
p - pull-off
s - slide to
t - 10
w - 12
~ - let ring
. - palm mute

VERSE
(This is television...)
e ----------------------|
B ----------------------|
G -9------7-----------o-|
D -9-(4x)-7-(12x)-----o-|        <-- that means repeat.
A -7------5-------------|
E ----------------------|


(No guitar in PRE-CHORUS)


CHORUS
(Don't say I don't cut when I do, I do, I do...)
e -------------------------------|-------------------|
B -------------------------------|-------------------|
G -4---------------------------o-|-------------------|
D -4-(8x)-5------7------2------o-|--7-------5--------|
A -2------5-(8x)-7-(8x)-2-(8x)---|--7-(16x)-5-(16x)--|
E --------3------5------0--------|--5-------3--------|
  |___________________________|
        this is called "A"

BRIDGE
(So many suitors, I don't even have a suit to wear...)
e ----------------------------------------------------|
B ----------------------------------------------------|
G ----------------------------------------------------|
D ----------------------------------------------------|
A -9-9htp9-7~-7-7h9p7----9-9hthw-----9p7-7s4----------|
E ---------------------t~----------w~----------7~-----|

BRIDGE (Cont.)
(I am the razor in the hands of your heart...)
e ----------------------------------------------------|
B ----------------------------------------------------|
G -------------------------------------4--------------|
D -------------------------------------4-(8x)---------|
A -9ht-9-7~-7h9----9-thw----9p7-7s4----2--------------|
E --------------t~-------w~---------7~----------------|
                                       . . . . . . . .

OUTTRO
(Don't say we're healing when it's just not what we do)
e ----------------------------------------------------|
B ----------------------------------------------------|
G -4~-------------------------------------------------|
D -4~--5~--7~-----------------------------------------|
A -2~--5~--7~-----------------------------------------|
E -----3~--5~-----------------------------------------|
Добавлено: 18.07.2012
Другие материалы по этой песне:
  • Аккорды и текст

Страница создана 21.03.2012
http://primanota.ru/head-automatica/razor-chords.htm
Привет, Гость.
Предлагаем пройти революционный курс по гитаре.
Подарок от PrimaNota.Ru, забирай!