PrimaNota.ru - самый крупный в мире бесплатный архив песенных текстов, аккордов, табулатур и нот


Head Automatica - Nowhere Fast - текст песни, таба, видео

Регистрация Запомнить меня
Войти через:  Facebook Google Twitter Vk Yandex Mail.ru

Head Automatica - Nowhere Fast - текст песни, таба, видео

Печатать
Просмотров: 130
Artist: Head Automatica.
Song:   Nowhere Fast.

This is a fairy easy song. Verse 2 is the only thing im not sure about, cause the guitar 
behind the keyboards. Post your comments on the comment board & Enjoy the song.


Intro.
e-----------------------------------------------------------------|
b-----------------------------------------------------------------|
g-----------------------------------------------------------------|
d----------------------6----10----10-8-6-5------------------------|
a-----------8----8------------------------------------------------|
E--------8----8-------------------------------8-------------------|

Verse 1.
e-----------------------------------------------------------------|
b-----------------------------------------------------------------|
g-----------------------------------------------------------------|
d----------------------6----10----10-8-6-5------------------------|
a-----------8----8------------------------------------------------|
E--------8----8-------------------------------8-------------------|


Verse. 2
e----------------8~-------------|
b----------8-9------------------|
g------10-----------------------|
d-------------------------------|
a-------------------------------|
E-------------------------------|

You have to Figure out when these two are played. They Alternate between the two.

e|-----------------8~---------|
b|----------8-9---------------|
g|-------8--------------------|
d|----------------------------|
a|----------------------------|
E|----------------------------|

Prechorus & Preverse 2
e|----------------------------------------------------|
b|-------------------8----9----13---------------------|
g|-------8---10------x----x-----x---------------------|
d|-------x----x------5----6----10---------------------|
a|-------6----8---------------------------------------|
E|----------------------------------------------------|

Chorus. ( With Lyrics.)
 F
   I will be going nowhere,
C#                        D#
 I will be going nowhere,
F                                   C#        D#
 I will be going nowhere, nowhere      fast,
F
I will be going no,
F
I will be going no,
C#
I will be going no,
D#
I will be going no,
F                                  C#
I will be going nowhere, nowhere       fast,

Instead of the D# after “Fast”  Play
e|------------------------------------------------------|
b|-------------------8--9--13---------------------------|
g|-------8---10------x--x---x---------------------------|
d|-------x----x------5--6--10---------------------------|
a|-------6----8-----------------------------------------|
E|------------------------------------------------------|


Then for the last chorus. After the “Fast” Play.
e|----------------------------------------------------|
b|-------------------8--9---13---/6-------------------|
g|-------8---10------x--x----x---/x-------------------|
d|-------x----x------5--6---10---/3-------------------|
a|-------6----8---------------------------------------|
E|----------------------------------------------------|
Добавлено: 17.05.2012
Другие материалы по этой песне:
  • Аккорды и текст

Страница создана 09.04.2012
http://primanota.ru/head-automatica/nowhere-fast-chords.htm
Привет, Гость.
Предлагаем пройти революционный курс по гитаре.
Подарок от PrimaNota.Ru, забирай!