PrimaNota.ru - самый крупный в мире бесплатный архив песенных текстов, аккордов, табулатур и нот


Head Automatica - Lying Through Your Teeth - текст песни, таба, бас-таба, видео

Регистрация Запомнить меня
Войти через:  Facebook Google Twitter Vk Yandex Mail.ru

Head Automatica - Lying Through Your Teeth - текст песни, таба, бас-таба, видео

Печатать
Просмотров: 120
This is one of my first few tabs I have worked out myself.
I enjoy playing it and thought others shall.
Im am pretty sure its correct as it all seems to fit well.
The only part I am not 100% sure on is the bridge but it seems to be ok.
Enjoy!


Intro

e--------------------------|
B--------------------------|
G------7--------7-7-6-7----|
D--7-7-7-7----7-7-7-6-7----|
A--7-7-5-7----7-5-5-4-5----|
E--5-5---5----5------------|


e--------------------------------------|
B--------------------------------------|
G--------7--------7-7-6-7--------------|
D--2-7-7-7-7----7-7-7-6-7--22222222----|
A--2-7-7-5-7----7-5-5-4-5--22222222----|
E--0-5-5---5----5----------00000000----|


Verse

e----------------------------------------|
B----------------------------------------|
G------------------77777777999999999-----|
D--777777777777777777777777999999999-----|
A--777777777777777755555555777777777-----|
E--5555555555555555----------------------|
p.m..................................


e----------------------------------------|
B----------------------------------------|
G------------------77777777999999999-----|
D--777777777777777777777777999999999-----|
A--777777777777777755555555577777777-----|
E--5555555555555555----------------------|
p.m..................................


e----------------------------------|
B----------------------------------|
G--------------7777777799999999----|
D-7-76-64-42-2-7777777799999999----|
A-7-76-64-42-2-5555555577777777----|
E-5-54-42-20-0---------------------|
               ................


e----------------------------------------|
B----------------------------------------|
G------------------77777777999999999-----|
D--777777777777777777777777999999999-----|
A--777777777777777755555555777777777-----|
E--5555555555555555----------------------|
p.m..................................


Pre-Chorus

e--------------------------------------|
B--------------------------------------|
G----------99999999--------------------|
D--99999999999999997777777744444444----|
A--99999999777777777777777744444444----|
E--77777777--------5555555522222222----|
p.m................................


e-----------------------------------------|
B-----------------------------------------|
G----------99999999-----------------------|
D--999999999999999977777777-7-------------|
A--999999997777777777777777-7-------------|
E--77777777--------55555555-5-------------|


Chorus

e--------------------------|
B--------------------------|
G------7--------7-7-6-7----|
D--7-7-7-7----7-7-7-6-7----|
A--7-7-5-7----7-5-5-4-5----|
E--5-5---5----5------------|


e--------------------------------------|
B--------------------------------------|
G--------7--------7-7-6-7--------------|
D--2-7-7-7-7----7-7-7-6-7--22222222----|
A--2-7-7-5-7----7-5-5-4-5--22222222----|
E--0-5-5---5----5----------00000000----|


Second Verse

e----------------------------------------|
B----------------------------------------|
G------------------77777777999999999-----|
D--777777777777777777777777999999999-----|
A--777777777777777755555555777777777-----|
E--5555555555555555----------------------|
p.m..................................


e----------------------------------------|
B----------------------------------------|
G------------------77777777999999999-----|
D--777777777777777777777777999999999-----|
A--777777777777777755555555577777777-----|
E--5555555555555555----------------------|
p.m..................................


e----------------------------------|
B----------------------------------|
G--------------7777777799999999----|
D-7-76-64-42-2-7777777799999999----|
A-7-76-64-42-2-5555555577777777----|
E-5-54-42-20-0---------------------|
               ................


e----------------------------------------|
B----------------------------------------|
G------------------77777777999999999-----|
D--777777777777777777777777999999999-----|
A--777777777777777755555555777777777-----|
E--5555555555555555----------------------|
p.m..................................


Pre-Chorus

e--------------------------------------|
B--------------------------------------|
G----------99999999--------------------|
D--99999999999999997777777744444444----|
A--99999999777777777777777744444444----|
E--77777777--------5555555522222222----|
p.m................................


e-----------------------------------------|
B-----------------------------------------|
G----------99999999-----------------------|
D--999999999999999977777777-7-------------|
A--999999997777777777777777-7-------------|
E--77777777--------55555555-5-------------|


Chorus

e--------------------------|
B--------------------------|
G------7--------7-7-6-7----|
D--7-7-7-7----7-7-7-6-7----|
A--7-7-5-7----7-5-5-4-5----|
E--5-5---5----5------------|


e--------------------------------------|
B--------------------------------------|
G--------7--------7-7-6-7--------------|
D--2-7-7-7-7----7-7-7-6-7--22222222----|
A--2-7-7-5-7----7-5-5-4-5--22222222----|
E--0-5-5---5----5----------00000000----|


Bridge (solo overtop)

e-----------------------------|
B-----------------------------|
G----6-67-711-117-77-7--------|
D-7-76-67-711-117-77-77-27----|
A-7-74-45-59--9-5-55-57-27----|
E-5-5-----------------5-05----|


e---------------------------------|
B---------------------------------|
G----6-67-711-117--7-7------------|
D-7-76-67-711-117-27-777777772----|
A-7-74-45-59--9-5-25-557777772----|
E-5-5-------------0---55555550----|


Last Verse

e----------------------------------------|
B----------------------------------------|
G------------------77777777999999999-----|
D--777777777777777777777777999999999-----|
A--777777777777777755555555777777777-----|
E--5555555555555555----------------------|


e--------------------------------------------|
B--------------------------------------------|
G-----------------------77777777999999999----|
D--777777777777-7-7-7-2-77777777999999999----|
A--777777777777-7-7-7-2-55555555777777777----|
E--555555555555-5-5-5-0----------------------|


e----------------------------------|
B----------------------------------|
G--------------7777777799999999----|
D-7-76-64-42-2-7777777799999999----|
A-7-76-64-42-2-5555555577777777----|
E-5-54-42-20-0---------------------|

e----------------------------------------|
B----------------------------------------|
G------------------77777777999999999-----|
D--777777777777777777777777999999999-----|
A--777777777777777755555555777777777-----|
E--5555555555555555----------------------|


Pre-Chorus

e---------------------------------------|
B---------------------------------------|
G----------99999999---------------------|
D--9999999999999999777777774-4-4-4-2----|
A--9999999977777777777777774-4-4-4-2----|
E--77777777--------555555552-2-2-2-0----|

e-----------------------------------------|
B-----------------------------------------|
G----------99999999-----------------------|
D--999999999999999977777777-7-------------|
A--999999997777777777777777-7-------------|
E--77777777--------55555555-5-------------|


Chorus

e--------------------------|
B--------------------------|
G------7--------7-7-6-7----|
D--7-7-7-7----7-7-7-6-7----|
A--7-7-5-7----7-5-5-4-5----|
E--5-5---5----5------------|


e--------------------------|
B--------------------------|
G--------7--------7-7-6-7--|
D--2-7-7-7-7----7-7-7-6-7--|
A--2-7-7-5-7----7-5-5-4-5--|
E--0-5-5---5----5----------|


e--------------------------|
B--------------------------|
G------7--------7-7-6-7----|
D--7-7-7-7----7-7-7-6-7----|
A--7-7-5-7----7-5-5-4-5----|
E--5-5---5----5------------|


e--------------------------|
B--------------------------|
G--------7--------7-7-6-7--|
D--2-7-7-7-7----7-7-7-6-7--|
A--2-7-7-5-7----7-5-5-4-5--|
E--0-5-5---5----5----------|
Добавлено: 25.02.2012
Другие материалы по этой песне:
  • Аккорды и текст

Страница создана 25.02.2012
http://primanota.ru/head-automatica/lying-through-your-teeth-chords.htm
Привет, Гость.
Предлагаем пройти революционный курс по гитаре.
Подарок от PrimaNota.Ru, забирай!