PrimaNota.ru - самый крупный в мире бесплатный архив песенных текстов, аккордов, табулатур и нот


Head Automatica - I Shot William H Macy - текст песни, таба, бас-таба, видео

Регистрация Запомнить меня
Войти через:  Facebook Google Twitter Vk Yandex Mail.ru

Head Automatica - I Shot William H Macy - текст песни, таба, бас-таба, видео

Печатать
Просмотров: 176
Уроки эстрадного вокала в Санкт-Петербурге
Tabbed by: maximushyrule
Song: I Shot William H. Macy

this is an easy song  by Head Automatica


|----|
|----|
|-8--|
|-8--|
|-6--|
|----|  x16

verse
|-----------------------|
|-------------3-3-------|
|-3----5-5----3-3-x-3-3-|
|-3----5-5----1-1-x-1-1-|
|-1----3-3--------------|
|-----------------------|

|---------------------------|
|-------------3-3-----------|
|-3----5-5----3-3---5-4-5-3-|
|-3----5-5----1-1---3-3-3-3-|
|-1----3-3------------------|
|---------------------------|
P.M.                . . . .


Chorus
|---------------------------------------------------------------------|
|---------------------------------------------------------------------|
|-6-6-6-6-6-6-6-----------7-7-7-7-7-7-7----------6-6-6-6-6-6-6--------|
|-6-6-6-6-6-6-6--6--------7-7-7-7-7-7-7----------6-6-6-6-6-6-6--6-----|
|-4-4-4-4-4-4-4----4-8----5-5-5-5-5-5-5--9--6----4-4-4-4-4-4-4----4-8-|
|---------------------------------------------------------------------|


Interlude
|---|      |---|
|---|      |---|
|-8-|      |-7-|
|-8-|      |-7-|
|-6-|  x8  |-5-|   x8
|---|      |---|
  .          .

then the verse

then the chorus

then the interlude

then the chorus 2x

then the interlude 4x
Добавлено: 12.04.2012
Другие материалы по этой песне:
  • Аккорды и текст

Страница создана 12.04.2012
http://primanota.ru/head-automatica/i-shot-william-h-macy-chords.htm
Привет, Гость.
Предлагаем пройти революционный курс по гитаре.
Подарок от PrimaNota.Ru, забирай!