PrimaNota.ru - самый крупный в мире бесплатный архив песенных текстов, аккордов, табулатур и нот


He Is Legend - Walls Have Teeth - текст песни, бас-таба, видео

Регистрация Запомнить меня
Войти через:  Facebook Google Twitter Vk Yandex Mail.ru

He Is Legend - Walls Have Teeth - текст песни, бас-таба, видео

Печатать
Просмотров: 92
Уроки эстрадного вокала в Санкт-Петербурге
Band: He is Legend
Song: The Walls Have Teeth
Tabbed by: angel a.
e-mail:Angelcsashes@hotmail.com

G|-----------------------------------------------------------------------------|
A|----------------------------------------------------------------------------7|
D|----------------3-7-5-5-3-5-5-3-5-7-5-3-----------------3-7-5-5-3-5-5-3-5-5--|
E|5-5-3-5-5-3-5-5-------------------------5-5-3-5-5-3-5-5----------------------|

Chorus

G|-----|| |:---------------------------------------------------------------|
D|-----|| |:---------------------------------------------------------------|
A|-----|| |:---------------------------------------------------------------|
E|0-0-3|| |:0-0-0-0-0-0-0-0-3-3-3-3-3-3-3-3-5-5-5-5-5-5-5-5-3-3-3-3-3-3-3-3|

G|---------------------------------------------------------------:|
D|---------------------------------------------------------------:|x2
A|---------------------------------------------------------------:|
E|0-0-0-0-0-0-0-0-3-3-3-3-3-3-3-3-5-5-5-5-5-5-5-5-5-5-5-5-5-5-5-5:|

| /  slide up
| \  slide down
| h  hammer-on
| p  pull-off
| ~  vibrato
| +  harmonic
| x  Mute note


Verse

G|----||  |:------------------------------------------------------------------------------:|
D|----||  |:----------------------------------------------------------------------------7-:|x2
A|----||  |:----------------3-7-5-5-3-5-5-3-5-7-5-3-----------------3-7-5-5-3-5-5-3-5-5---:|
E|5-/||  |:5-5-3-5-5-3-5-5-------------------------5-5-3-5-5-3-5-5-----------------------:|


Fill

G|-----|
D|-----|
A|-----|
E|0~---|

Bridge

G|:----------------------------------------------------------------------------------------------------------:|
D|:----------------------------------------------------------------------------------------------------------:|x2
A|:----------------------------------------------------------------------------------------------------------:|
E|:0-0-0-0-0-0-0-0-0-0-0-0-0-0-0-0-3-3-3-3-3-3-3-3-3-3-3-3-3-3-3-3-5~---5-5~--3-3-3-3-3-3-3-3-3-3-3-3-3-3-3-3:|

G|----------------------------------------------------------------------------------|
D|----------------------------------------------------------------------------------|
A|----------------------------------------------------------------------------------|
E|7-7-7-7-7-7-7-7-7-7-7-7-7-7-7-7/12-12-12-12-12-12-12-12-12-12-12-12-12-12-12-12-12|

Break Down

G|-----||---||-----|
D|-----||---||-----|x8
A|-----||---||-----|
E|0-3-0||0-0||5-3-5|

Ending

G|-------------------------------|
D|-------------------------------|
A|-------------------------------|
E|5~---7-7-7~---0~---h/12~--5-5
Добавлено: 09.05.2012
Другие материалы по этой песне:
  • Аккорды и текст

Страница создана 09.05.2012
http://primanota.ru/he-is-legend/walls-have-teeth-chords.htm
Привет, Гость.
Предлагаем пройти революционный курс по гитаре.
Подарок от PrimaNota.Ru, забирай!