PrimaNota.ru - самый крупный в мире бесплатный архив песенных текстов, аккордов, табулатур и нот


He Is Legend - The Primarily Blues - таба, видео

Регистрация Запомнить меня
Войти через:  Facebook Google Twitter Vk Yandex Mail.ru

He Is Legend - The Primarily Blues - таба, видео

Печатать
Просмотров: 81
----------------------------------------------------------------------------------------
                      The Primarily Blues - He Is Legend
-------------------------------------------------------------------------------
Tabbed by: millarso (Jake Miller)
E-mail: millarso2.0@gmail.com

Tuning: Drop C

Stay with me because this song uses a lot of different tracks, but it is an awesome song.

INTRO (Need a tremolo pedal for the right sound)
D|----0--------0------0---------0------0----0---0----0-----------|
A|------0--------0------0---------0------0----0--------0---------|
F|---------------------------------------------------------------|
C|-2-------2/7-----6-------6/10-----9-------------8------8-0-2-3-|
G|---------------------------------------------------------------|
C|---------------------------------------------------------------|

D|----0--------0------0---------0------0----0---0-0--|
A|------0--------0------0---------0------0----0---0--|
F|------------------------------------------------0--|
C|-2-------2/7-----6-------6/10-----9-------------8--|
G|---------------------------------------------------|
C|---------------------------------------------------|

 SECTION 1
|Guitar 1 (let notes ring)
|D|----------0---------------|
|A|------------0----0----0---|
|F|--------------3----3----3-|
|C|--------------------------|x4
|G|--------------------------|
|C|--------------------------|
|
|Guitar 2 (probably 2 tracks playing this)
|D|--------------------------|
|A|--------------------------|
|F|--------------------------|
|C|-0-2-3-2------------------|x4
|G|-0-2-3-2------------------|
|C|-0-2-3-2------------------|

|Guitar 1 (let notes ring)
|D|----------0---------------|
|A|------------0----0----0---|
|F|--------------3----3----3-|
|C|--------------------------|x2
|G|--------------------------|
|C|--------------------------|
|
|Guitar 2
|D|--------------------------|
|A|--------------------------|
|F|--------------------------|
|C|-0-2-3-2------------------|x2
|G|-0-2-3-2-(let-ring)-------|
|C|-0-2-3-2------------------|

 SECTION 2 (3 guitars)
|Lead 1
|D|-----------/5--4---------------------------/5--4--/7p0---------|
|A|------------------5~~----------------------------------6b8-----|
|F|---------------------------------------------------------------|
|C|---------------------------------------------------------------|
|G|---------------------------------------------------------------|
|C|---------------------------------------------------------------|
|
|Lead 2
|D|------------0-----------------------------0--------------------|
|A|---------------0--/3p0-----------------------0--/3p0-----------|
|F|-----------------------2h4p2p1~----------------------2b4-------|
|C|---------------------------------------------------------------|
|G|---------------------------------------------------------------|
|C|---------------------------------------------------------------|
|
|Rhythm
|D|---------------------------------------------------------------|
|A|---------------------------------------------------------------|
|F|-1st-time------------------------------------------------------|
|C|-(0-2-3)-2-----------------------0-2-3-2-----------------------|
|G|-(0-2-3)-2-----------------------0-2-3-2-----------------------|
|C|-(0-2-3)-2-2-222-222-222-222-222-0-2-3-2-2-222-222-222-222-222-|
|             . ... ... ... ... ...         . ... ... ... ... ...

|Lead 1
|D|---------/5--4-----------------------------------------------------|
|A|----------------5~~------------------------------------------------|
|F|-------------------------------------------------------------------|
|C|-------------------------------------------------------------------|
|G|-------------------------------------------------------------------|
|C|-------------------------------------------------------------------|
|
|Lead 2
|D|----------0--------------------------------------------------------|
|A|-------------0--/3p0-----------------------------------------------|
|F|---------------------2h4p2p1~--------------------------------------|
|C|-------------------------------------------------------------------|
|G|-------------------------------------------------------------------|
|C|-------------------------------------------------------------------|
|
|Rhythm
|D|-------------------------------------------------------------------|
|A|-------------------------------------------------------------------|
|F|-------------------------------------------------------------------|
|C|-0-2-3-2-----------------------0-2-3-3--3-3---3/7\6-0----0---3---3-|
|G|-0-2-3-2-----------------------0-2-3-3--3-3-0-3/7\6-0--0-0-0-3-0-3-|
|C|-0-2-3-2-2-222-222-222-222-222-0-2-3-3--3-3-0-3/7\6-0--0-0-0-3-0-3-|
|           . ... ... ... ... ...              .          .   .   .

REPEAT SECTION 2

SECTION 3
Both Guitars
D|---------------------------------------------------------------|
A|---------------------------------------------------------------|
F|---------------------------------------------------------------|
C|-2--/7-6-----------2/7-6---------2--/7-6-----------2/7-6-------|
G|-2--/7-6-0-2-3-0-2-2/7-6-0-2-3-0-2--/7-6-0-2-3-0-2-2/7-6-0-----|
C|-2--/7-6-0-2-3-0-2-2/7-6-0-2-3-0-2--/7-6-0-2-3-0-2-2/7-6-0-1b2-|
           . . . . .       . . . .         . . . . .       .

SECTION 4
Both Guitars
D|-----------------------------------------------------------------|
A|-----------------------------------------------------------------|
F|-----------------------------------------------------------------|
C|-2--2-2-2-2/7-7-6--6-6-6-6/10-10-9--3-3-3-3/10-10-9--2-2-2-0-2-3-|
G|-2--2-2-2-2/7-7-6--6-6-6-6/10-10-9--3-3-3-3/10-10-9--2-2-2-0-2-3-|
C|-2--2-2-2-2/7-7-6--6-6-6-6/10-10-9--3-3-3-3/10-10-9--2-2-2-0-2-3-|

D|------------------------------------------------------------|
A|------------------------------------------------------------|
F|------------------------------------------------------------|
C|-2--2-2-2-2/7-7-6--6-6-6-6/10-10-9--9--9--9--8--8-8-8-0-2-3-|
G|-2--2-2-2-2/7-7-6--6-6-6-6/10-10-9--9--9--9--8--8-8-8-0-2-3-|
C|-2--2-2-2-2/7-7-6--6-6-6-6/10-10-9--9--9--9--8--8-8-8-0-2-3-|

REPEAT SECTION 4

SECTION 5
Lead parts are identical to SECTION 2

Rhythm
D|--------------------------------------------------------------|
A|--------------------------------------------------------------|
F|--------------------------------------------------------------|
C|-2--------------0-2-3-2--------------0-2-3-2------------------|
G|-2--------------0-2-3-2--------------0-2-3-2------------------|
C|-2--------------0-2-3-2--------------0-2-3-2------------------|

D|-------------------------------------|
A|-------------------------------------|
F|-------------------------------------|
C|-0-2-3-3--3-3---3/7\6-0----0---3---3-|
G|-0-2-3-3--3-3-0-3/7\6-0--0-0-0-3-0-3-|
C|-0-2-3-3--3-3-0-3/7\6-0--0-0-0-3-0-3-|
                .          .   .   .

D|--------------------------------------------------------------|
A|--------------------------------------------------------------|
F|--------------------------------------------------------------|
C|-2--2---2-2-2---0-2-3-2--2---2-2-2---0-2-3-2--2-2--2--2--2--2-|
G|-2--2---2-2-2---0-2-3-2--2---2-2-2---0-2-3-2--2-2--2--2--2--2-|
C|-2--2---2-2-2---0-2-3-2--2---2-2-2---0-2-3-2--2-2--2--2--2--2-|

D|-------------------------------------|
A|-------------------------------------|
F|-------------------------------------|
C|-0-2-3-3--3-3---3/7\6-0----0---3---3-|
G|-0-2-3-3--3-3-0-3/7\6-0--0-0-0-3-0-3-|
C|-0-2-3-3--3-3-0-3/7\6-0--0-0-0-3-0-3-|
                .          .   .   .

D|----------------------------------------|
A|----------------------------------------|
F|----------------------------------------|
C|-2--///\\\///\\\///\\\///\\\///\\\///-2-|
G|-2--/pick-slide-back-&-forth-rapidly/-2-|
C|-2--///\\\///\\\///\\\///\\\///\\\///-2-|

REPEAT SECTION 4

SECTION 6
There is some lead part going on the back with some Wah, but I can't make it out

Rhythm
D|--------------------------------------------------------------------|
A|--------------------------------------------------------------------|
F|--------------------------------------------------------------------|
C|-7--7-7-7-7-7-7-3--3-3-3-3-3-3-10--10-10-10-10-10-10-5--5-5-5-5-5-5-|
G|-7--7-7-7-7-7-7-3--3-3-3-3-3-3-10--10-10-10-10-10-10-5--5-5-5-5-5-5-|
C|-7--7-7-7-7-7-7-3--3-3-3-3-3-3-10--10-10-10-10-10-10-5--5-5-5-5-5-5-|

D|-------------------------------------------------------------|
A|-------------------------------------------------------------|
F|-------------------------------------------------------------|
C|-7--7-7-7-7-7-7-3--3-3-3-3-3-3-2--2-2-2-2-2-2-5--5-5-5-5-5-5-|
G|-7--7-7-7-7-7-7-3--3-3-3-3-3-3-2--2-2-2-2-2-2-5--5-5-5-5-5-5-|
C|-7--7-7-7-7-7-7-3--3-3-3-3-3-3-2--2-2-2-2-2-2-5--5-5-5-5-5-5-|

D|---------------------------------------------------------------|
A|---------------------------------------------------------------|
F|---------------------------------------------------------------|
C|-7--7-7--7-7-7-3--3-3--3-3-3-10--10-10--10-10-10-5--5-5--5-5-5-|
G|-7--7-7--7-7-7-3--3-3--3-3-3-10--10-10--10-10-10-5--5-5--5-5-5-|
C|-7--7-7--7-7-7-3--3-3--3-3-3-10--10-10--10-10-10-5--5-5--5-5-5-|

D|------------------------------------------------------|
A|------------------------------------------------------|
F|------------------------------------------------------|
C|-7--7-7--7-7-7-3--3-3--3-3-3--2-------2-------6-------|
G|-7--7-7--7-7-7-3--3-3--3-3-3--2-2-2-2-2-2-2-2-6-6-6-6-|
C|-7--7-7--7-7-7-3--3-3--3-3-3--2-2-2-2-2-2-2-2-6-6-6-6-|
                                  . . .   . . .
SECTION 7
D|--------------------|
A|--------------------|
F|--------------------|
C|-0-2-3-2------------|x3
G|-0-2-3-2-(let-ring)-|
C|-0-2-3-2------------|

D|--------------------------------------|
A|--------------------------------------|
F|--------------------------------------|
C|-0-2-3-2------------------------------|
G|-0-2-3-2--2-2-2-2-2-2-2-2-2-2-2-------|
C|-0-2-3-2--2-2-2-2-2-2-2-2-2-2-2-0-2-3-|
            . . . . . . . . . . .

REPEAT SECTION 6

SECTION 8
Both Guitars
D|----------------------------|  |---------|
A|----------------------------|  |---------|
F|----------------------------|  |---------|
C|----------------------------|x4|---------|
G|----------------------------|  |-2-3-0-3-|
C|-2b3--3-2-3-6b7--0--2-3-0-3-|  |-2-3-0-3-|
                                   . . . .

D|----------------------------|  |----------------|
A|----------------------------|  |----------------|
F|----------------------------|  |----------------|
C|----------------------------|x4|---------2---xx-|
G|----------------------------|  |-2-3-0-3-2---xx-|
C|-2b3--3-2-3-6b7--0--2-3-0-3-|  |-2-3-0-3-2---xx-|
                                   . . . .

That's all for that song. He Is Legend likes to mix a lot of guitar tracks, but this
should still be a fun one to play.
Hope you enjoy. Please rate & comment.
Thanks,
millarso

************************************

| /   slide up
| \   slide down
| h   hammer-on
| p   pull-off
| ~   vibrato
| +   harmonic
| x   Mute note
| b   Bend
| pb  Pre-bend
| br  Bend release
| pbr Pre-bend release
| brb Bend release bend

************************************
Добавлено: 20.09.2013
Другие материалы по этой песне:
  • Аккорды и текст

Страница создана 20.09.2013
http://primanota.ru/he-is-legend/the-primarily-blues-chords.htm
Привет, Гость.
Предлагаем пройти революционный курс по гитаре.
Подарок от PrimaNota.Ru, забирай!