PrimaNota.ru - самый крупный в мире бесплатный архив песенных текстов, аккордов, табулатур и нот


He Is Legend - Suduction - таба, видео

Регистрация Запомнить меня
Войти через:  Facebook Google Twitter Vk Yandex Mail.ru

He Is Legend - Suduction - таба, видео

Печатать
Просмотров: 94
Band: He Is Legend
Song: The Seduction
Tuning: Drop-D (D,a,d,g,b,e)
____________________________
x-mute
h-hammer on
p-push off
v-vibrato
\-slide up
/-slide down
*-pick scrape
~-ring out
____________________________
Intro
E[---------------------------------------------------------------------
B[---------------------------------------------------------------------
G[101010x/5-555555-6-66666-5-555555-6-66666-5-555555-6-66666-5-555555--
D[101010x/5-555555-6-66666-5-555555-6-66666-5-555555-6-66666-5-555555-]
A[-8-8-8x/3-333333-4-44444-3-333333-4-44444-3-333333-4-44444-3-333333-
D[--------------------------------------------------------------------

Verse                (x3)
E[----------------------------------]
B[----------------------------------]
G[-5-55-7-77-10---------------------]
D[-5-55-7-77-10-88888-----33333-3\5-]
A[-3-33-5-55--8-88888-----33333-3\5-]
D[--------------88888-----33333-3\5-]
Repeat Verse Twice

Main Riff            (x3)
E[-------------13v--]     E[-----------------]
B[------------------]     B[-----------------]
G[------------------]     G[-----------------]
D[-3-0--------------]     D[-----------------]
A[-3-0-0h3h4h5------]     A[-----------------]
D[-3-0--------0-----]     D[-6p0-5p0-6p0-5/3-]
Repeat Riff Twice

Pre-Chorus
E[------------------------------]
B[------------------------------]
G[------------------------------]
D[-0----------------------------]
A[-0-0h3h4h5-0h3h4h5-0h3h4h5--8-]
D[-0----------------------------]

E[--------------------------------]
B[--------------------------------]
G[--------------------------------]
D[-0-0----------------------------]
A[-0-0-0h3h4h5-0h3h4h5-0h3h4h5----]
D[-0-0-------------------------3v-]

E[------------------------------]
B[------------------------------]
G[------------------------------]
D[-0----------------------------]
A[-0-0h3h4h5-0h3h4h5-0h3h4h5--8-]
D[-0----------------------------]

E[------------------]
B[------------------]
G[------------------]
D[------------------]
A[------------------]
D[-6p0-5p0--6p0-5/3-]
Repeat Pre-Chorus Twice

Chorus                               x4
E[----------------------------------]
B[----------------------------------]
G[----------------------------------]
D[101010101010-777777-000000-333333-]
A[-8-8-8-8-8-8-555555-000000-333333-]
D[-8-8-8-8-8-8-555555-000000-333333-]

Verse                (x3)
E[----------------------------------]
B[----------------------------------]
G[-5-55-7-77-10---------------------]
D[-5-55-7-77-10-88888-----33333-3\5-]
A[-3-33-5-55--8-88888-----33333-3\5-]
D[--------------88888-----33333-3\5-]

Interlude            x3
E[-------------13v--]     E[-----------------]
B[------------------]     B[-----------------]
G[------------------]     G[-----------------]
D[-3-0--------------]     D[-----------------]
A[-3-0-0h3h4h5------]     A[-----------------]
D[-3-0--------0-----]     D[-6p0-5p0-6p0-5/3-]

                    x2
E[-------------13v-]
B[-----------------]
G[-----------------]
D[-3-0-------------]
A[-3-0-0-3h4h5-----]
D[-3-0--------0----]

E[-----------------]
B[-----------------]
G[-----------------]
D[-3-0-------------]
A[-3-0-0-3h4/5-----]
D[-3-0--------0-6v-]
                           x8



E[-------------------------]
B[-------------------------]
G[-------------------------]
D[-6p0-5p0-6p0-5/3---------]
A[-6p0-5p0-6p0-5/3---------]
D[-6p0-5p0-6p0-5/3-0h3h4h5-]

Chorus                               x4
E[----------------------------------]
B[----------------------------------]
G[----------------------------------]
D[101010101010-777777-000000-333333-]
A[-8-8-8-8-8-8-555555-000000-333333-]
D[-8-8-8-8-8-8-555555-000000-333333-]

Verse                (x3)
E[----------------------------------]
B[----------------------------------]
G[-5-55-7-77-10---------------------]
D[-5-55-7-77-10-88888-----33333-3\5-]
A[-3-33-5-55--8-88888-----33333-3\5-]
D[--------------88888-----33333-3\5-]

Lead to Solo
E[-----------------]
B[-----------------]
G[-----------------]
D[10~---7~---0~-0~-]
A[-8~---5~---0~-0~-]
D[-8~---5~---0~-0~-]

Cant Figure out solo yet but gettin ther...

Chorus                               x4
E[----------------------------------]
B[----------------------------------]
G[----------------------------------]
D[101010101010-777777-000000-333333-]
A[-8-8-8-8-8-8-555555-000000-333333-]
D[-8-8-8-8-8-8-555555-000000-333333-]

                                 x3
E[------------------------------]
B[------------------------------]
G[------------------------------]
D[-0----------------------------]
A[-0-0h3h4h5-0h3h4h5-0h3h4h5--8-]
D[-0----------------------------]


E[------------------]           E[-------]
B[------------------]           B[-------]      
G[------------------]           G[-------]
D[------------------]           D[-0-----]
A[------------------]           A[-0-----]
D[-6p0-5p0--6p0-5/3-]           D[-0-----]

The end!!


And thats it.  If you have any questions or corrctions then e-mail me at abradford107@yaoo.com
Добавлено: 11.05.2012
Другие материалы по этой песне:
  • Аккорды и текст

Страница создана 11.05.2012
http://primanota.ru/he-is-legend/suduction-chords.htm
Привет, Гость.
Предлагаем пройти революционный курс по гитаре.
Подарок от PrimaNota.Ru, забирай!