PrimaNota.ru - самый крупный в мире бесплатный архив песенных текстов, аккордов, табулатур и нот


He Is Legend - Suck Out The Poison - текст песни, таба, видео

Регистрация Запомнить меня
Войти через:  Facebook Google Twitter Vk Yandex Mail.ru

He Is Legend - Suck Out The Poison - текст песни, таба, видео

Печатать
Просмотров: 129
Уроки эстрадного вокала в Санкт-Петербурге
Artist: He Is Legend
Song: Suck Out the Poison
Album: Suck Out the Poison
Tabbed By: Steven Rehbein
Email: sonicbluezx3@yahoo.com
Date: September 6, 2007


Intro:
D--------------------------------------------------|
A--------------------------------------------------|
F--6--------6--------6-----------------------------|
C--4--------4--------4-----------------------------|
G--4--------4--------4--------0--0-2-0-4-----------|
C--4--2--2--4--2--2--4--2--2--------------2-4-2-4--|


Verse 1:
D------------------------------------------------------------------------------------|
A------------------------------------------------------------------------------------|
F------------------------------------------------------------------------------------|
C------------------------------------------------------------------------------------|
G-------------0-0-0-0-0-2-2-2-2-2------------------------2-2-2-2-2-0--0-2-0-4--------|
C--4-4-4-4-4----------------------2--2-2-2-2---4-4-4-4-4-----------------------2-4-2-|

D------------------------------------------------------------------------------------|
A------------------------------------------------------------------------------------|
F------------------------------------------------------------------------------------|
C------------------------------------------------------------------------------------|
G-------------0-0-0-0-0-2-2-2-2-2------------------------2-2-2-2-2-0--0-2-0-4--------|
C--4-4-4-4-4----------------------2--2-2-2-2---4-4-4-4-4-----------------------2-4-2-|

Chorus:
D----------------------------------------------------------------------------------------------|
A----------------------------------------------------------------------------------------------|
F------------------------------------------------------------------------------6-6-------------|
C------------------------------------------------------------------------------4-4-------------|
G--0-0--0-2-2--2-4-4--4-4-4-2-0-0-0-2-2-2-4-4-2-4-4-4--0-0-0-2-2-2-4-4-2-2-0-0-----------------|
C--0-0--0-2-2--2-4-4--4-4-4-2-0-0-0-2-2-2-4-4-2-4-4-4--0-0-0-2-2-2-4-4-2-2-0-0-----0--2-2-2-4--|


Pre-Verse:

   Play this part twice,     then:        (then play whole thing again)
D---------------------------|----------------------------|
A---------------------------|----------------------------|
F---3-4-3-4-6-4-3-4-3-------|----------------------------|
C---------------------------|----------------------------|
G---------------------------|-0-0-2-0-4------------------|
C-4-------------------2--2--|-----------2-4-2-4----------|


Verse 2:
D------------------------------------------------------------------------------------|
A------------------------------------------------------------------------------------|
F------------------------------------------------------------------------------------|
C------------------------------------------------------------------------------------|
G-------------0-0-0-0-0-2-2-2-2-2------------------------2-2-2-2-2-0--0-2-0-4--------|
C--4-4-4-4-4----------------------2--2-2-2-2---4-4-4-4-4-----------------------2-4-2-|

D------------------------------------------------------------------------------------|
A------------------------------------------------------------------------------------|
F------------------------------------------------------------------------------------|
C------------------------------------------------------------------------------------|
G-------------0-0-0-0-0-2-2-2-2-2------------------------2-2-2-2-2-0--0-2-0-4--------|
C--4-4-4-4-4----------------------2--2-2-2-2---4-4-4-4-4-----------------------2-4-2-|

Chorus:
D----------------------------------------------------------------------------------------------|
A----------------------------------------------------------------------------------------------|
F------------------------------------------------------------------------------6-6-------------|
C------------------------------------------------------------------------------4-4-------------|
G--0-0--0-2-2--2-4-4--4-4-4-2-0-0-0-2-2-2-4-4-2-4-4-4--0-0-0-2-2-2-4-4-2-2-0-0-----------------|
C--0-0--0-2-2--2-4-4--4-4-4-2-0-0-0-2-2-2-4-4-2-4-4-4--0-0-0-2-2-2-4-4-2-2-0-0-----0--2-2-2-4--|

Pre-Verse:

   Play this part twice,     then:        (then play whole thing again)
D---------------------------|----------------------------|
A---------------------------|----------------------------|
F---3-4-3-4-6-4-3-4-3-------|----------------------------|
C---------------------------|----------------------------|
G---------------------------|-0-0-2-0-4------------------|
C-4-------------------2--2--|-----------2-4-2-4----------|  (on the last time let this note ring)


Solo:
D------------------------------------------------------------------------------|
A------------------------------------------14----------------------------------|
F------------------11--14--11--14--11--14----14-14--11--14--11--14--11--13~~~--|
C-4--4--4--4--4-4--------------------------------------------------------------|(bend)
G-4--4--4--4--4-4--------------------------------------------------------------|
C-4--4--4--4--4-4--------------------------------------------------------------|

D------------------------------------------------------------|
A------------------------14----------------------------------|
F-11--14--11--14--11--14----14-14--11--14--11--14--11--13~~~-|
C------------------------------------------------------------|(bend)
G------------------------------------------------------------|
C------------------------------------------------------------|

D------------------------------------------------------------|
A-----------------14~~~~-------------------------------------|
F-11--14--11--14-----------11--14--11--14--11--13~~~---------|
C------------------------------------------------------------|(bend)
G------------------------------------------------------------|
C------------------------------------------------------------|

D------------------------------------------------------------------------------|
A------------------------14----------------------------------------------------|
F-11--14--11--14--11--14----14-14--11--14--11--14--11--13~~~-------------------|
C-----------------------------------------------------(bend)--5-5-5-5--5-5-5-5-|
G-------------------------------------------------------------5-5-5-5--3-3-3-3-|
C-------------------------------------------------------------5-5-5-5----------|

Breakdown:
D-----------------------------------------------------------------------------|
A-----------------------------------------------------------------------------|
F-----------------------------------------------------------------------------|
C-----------------------------------------------------------------------------|
G---------------0--------------------3-------------------0--------------------|
C--4-2-4--4-2-4---4-2-4-2-4----4-2-4---4-2-4-2-4---4-2-4---4-2-0--0-2-2-2-2---|

D-----------------------------------------------------------------------------|
A-----------------------------------------------------------------------------|
F-----------------------------------------------------------------------------|
C-----------------------------------------------------------------------------|
G---------------0--------------------3-------------------0--------------------|
C--4-2-4--4-2-4---4-2-4-2-4----4-2-4---4-2-4-2-4---4-2-4---4-2-0--0-2-2-2-2---|

Chorus:
D--------------------------------------------------------------------------------------------|
A---------------------------------(some fill here I can't figure out)------------------------|
F------------------------------------------------------------------------------6-6-----------|
C------------------------------------------------------------------------------4-4-----------|
G--0-0--0-2-2--2-4-4--4-4-4-2-0-0-0-2-2-2-4-4-2-4-4-4--0-0-0-2-2-2-4-4-2-2-0-0---------------|
C--0-0--0-2-2--2-4-4--4-4-4-2-0-0-0-2-2-2-4-4-2-4-4-4--0-0-0-2-2-2-4-4-2-2-0-0-----0--2-2-2--|

D------------------------------|
A------------------------------|
F---3-4-3-4-6-4-3-4-3----------|
C---------------------------4--|
G---------------------------4--|
C-4-------------------2--2--4--|
                            (Let Last Note Ring Out)
Добавлено: 24.03.2012
Другие материалы по этой песне:
  • Аккорды и текст

Страница создана 24.03.2012
http://primanota.ru/he-is-legend/suck-out-the-poison-chords.htm
Привет, Гость.
Предлагаем пройти революционный курс по гитаре.
Подарок от PrimaNota.Ru, забирай!