PrimaNota.ru - самый крупный в мире бесплатный архив песенных текстов, аккордов, табулатур и нот


He Is Legend - Stranger Danger - таба, видео

Регистрация Запомнить меня
Войти через:  Facebook Google Twitter Vk Yandex Mail.ru

He Is Legend - Stranger Danger - таба, видео

Печатать
Просмотров: 130
Artist: He Is Legend
Song: Stranger Danger
Album: It Hates You
Transcribed by: Brandon Yates (UG Forum - ThisFireBurns22)
Date: April 20th, 2009

This is an awesome song that He Is Legend released as a demo way back in 
April of 2008.  This is the tab for that version and I am assuming that it 
is the same one that will appear on their new cd, It Hates You, which will 
be released this coming June.  In typical He Is Legend fashion, there is
a lot of ambient parts which I did not include. All of this is 100% my work, 
so please give me credit if you use it.  Here it is, enjoy!


---------------------------------------------------------------------------------
STRANGER DANGER
---------------------------------------------------------------------------------

Tuning(Drop C): CGCFAD

Intro - Guitar 1
D|--------------------------------------|
A|---3-4-3----3-4-3----3-4-3----3-4-3---|
F|-0--------0--------0--------0---------|
C|--------------------------------------| 5x
G|--------------------------------------|
C|--------------------------------------|


Intro - Guitar 2
D|--------------------------------------|
A|--------------------------------------|
F|--------------------------------------|
C|-55555555-00000000-11111111-66666666--| 4x
G|-55555555-00000000-11111111-66666666--| 
C|-55555555-00000000-11111111-66666666--|

Intro-Verse Transition
D|--------------------------------------|
A|--------------------------------------|
F|--------------------------------------|
C|-5--5555555---7-7-7-7-----------------| 1x
G|-5--5555555---5-5-5-5-----------------|
C|-5--5555555---------------------------|



Verse (Timing and spacing is not perfect, but its close.)
D|----------------------------------------------5----5------6-------|
A|----3---3h4p3-----1-3b4-1b3-------3---3h4p3------3----3h4------3--|
F|-0----0-------0h3-----------3b-0----0-------0---------------0-----|
C|------------------------------------------------------------------|
G|------------------------------------------------------------------|
C|------------------------------------------------------------------|

D|--5-3-2-------2-3---|
A|--------4-3-4-------|
F|--------------------|
C|--------------------| 3x
G|--------------------|
C|--------------------|


Prechorus 
D|-------------------------------------------------------------------|
A|-------------------------------------------------------------------|
F|-----0-----0-----0-----0--------------0-----0---0------0-----0---0-|
C|---0-----0-----0-----0--------------0-----0---------0-----0--------| 
G|-------------2-----3-----6--5--3--2-----2-----2--------------------|
C|-5-----3------------------------------------------3-----3-----3----|

D|------------------------------------------------------------------|
A|------------------------------------------------------------------|
F|-----0-----0-----0-----0--------------0-----0---0-----------------|
C|---0-----0-----0-----0--------------0-----0-------3-3-3-3-3-3-3-3-| 1x
G|-------------2-----3-----6--5--3--2-----2-----2---3-3-3-3-3-3-3-3-|
C|-5-----3------------------------------------------3-3-3-3-3-3-3-3-|
pm                                                    . . . . 


Chorus 1
D|--------------------------------------|
A|--------------------------------------|
F|--------------------------------------|
C|-55555555-00000000-11111111-66666666--| 2x
G|-55555555-00000000-11111111-66666666--|
C|-55555555-00000000-11111111-66666666--|

D|----------------------------------------|
A|----------------------------------------|
F|---777777----------------------5-5------|
C|-5-555555--7-7--777--33333333--4-4--7-7-| 1x
G|-5-555555--5-5--555--33333333--3-3--5-5-|
C|-5-555555--4-4--444--33333333-------4-4-|

        PLAY WHOLE THING TWICE


Postchorus
D|------------------------------------------------------------|
A|------------------------------------------------------------|
F|-----0-----0-----0-----0--------------0-----0---0-----------|
C|---0-----0-----0-----0--------------0-----0-------3-3-3-3-3-| 1x
G|-------------2-----3-----6--5--3--2-----2-----2---3-3-3-3-3-|
C|-5-----3------------------------------------------3-3-3-3-3-|
pm                                                    . . .


Verse 
D|----------------------------------------------5----5------6-------|
A|----3---3h4p3-----1-3b4-1b3-------3---3h4p3------3----3h4------3--|
F|-0----0-------0h3-----------3b-0----0-------0---------------0-----|
C|------------------------------------------------------------------|
G|------------------------------------------------------------------|
C|------------------------------------------------------------------|

D|--5-3-2-------2-3---|
A|--------4-3-4-------|
F|--------------------|
C|--------------------| 3x
G|--------------------|
C|--------------------|


Prechorus
D|------------------------------------------------------------------|
A|------------------------------------------------------------------|
F|-----0-----0-----0-----0--------------0-----0---0-----------------|
C|---0-----0-----0-----0--------------0-----0-------3-3-3-3-3-3-3-3-| 1x
G|-------------2-----3-----6--5--3--2-----2-----2---3-3-3-3-3-3-3-3-|
C|-5-----3------------------------------------------3-3-3-3-3-3-3-3-|
pm      
                                              . . . . 

Chorus 1
D|--------------------------------------|
A|--------------------------------------|
F|--------------------------------------|
C|-55555555-00000000-11111111-66666666--| 2x
G|-55555555-00000000-11111111-66666666--|
C|-55555555-00000000-11111111-66666666--|


D|----------------------------------------|
A|----------------------------------------|
F|---777777----------------------5-5------|
C|-5-555555--7-7--777--33333333--4-4--7-7-| 1x
G|-5-555555--5-5--555--33333333--3-3--5-5-|
C|-5-555555--4-4--444--33333333-------4-4-|

        PLAY WHOLE THING TWICE


Postchorus Heavy
D|----------------------------------------------|
A|----------------------------------------------|
F|----------------------------------------------|
C|-5--3----4--5-----8--7--5--4------------------|
G|-5--3----2--3-----6--5--3--2------------------|
C|-5--3--0-------0--8--7--5--4--003~-3~-003355--|
pm       .       .     .  .     ..      ......

D|----------------------------------------------|
A|----------------------------------------------|
F|------------------------------5-5-5-5-5-5-5-5-|
C|-5--3----4--5-----8--7--5--4--3-3-3-3-3-3-3-3-|
G|-5--3----2--3-----6--5--3--2------------------|
C|-5--3--0-------0--8--7--5--4------------------|
pm       .       .     .  .       . . . .


Intrumental Break
D|--------------------------------------|
A|---3-4-3----3-4-3----3-4-3----3-4-3---|
F|-0--------0--------0--------0---------|
C|--------------------------------------| x14 - 1st measure fades in
G|--------------------------------------|     - Last measure is played alone
C|--------------------------------------|

Fill during break
D|--------------------------------------|
A|----8-----------------8---------------|
F|-10----------------10---7-------------|
C|--------------------------------------| 
G|--------------------------------------|
C|--------------------------------------|


Chorus 2
D|--------------------------------------|
A|--------------------------------------|
F|--------------------------------------|
C|-11111111-33333333-55555555-55555555--| x3
G|-11111111-33333333-55555555-55555555--|
C|-11111111-33333333-55555555-55555555--|

D|--------------------------------------|
A|--------------------------------------|
F|--------------------------------------|
C|-11111111-33333333----------7-7-7-7---| x1
G|-11111111-33333333-00000000-5-5-5-5---|
C|-11111111-33333333-00000000-----------|
pm ........ ........ ........

Chorus Lead (I'm not very sure about this being correct, but mess around in this area.)
D|-5h6p5h6p5h6p5h6p5h6p5h6p5h6p5--------|
A|-------------------------------6/8~---|
F|--------------------------------------|
C|--------------------------------------| 
G|--------------------------------------|
C|--------------------------------------|

D|-8-6-5-6-5---5-6-8-6-6h8p6p5-6-5--------------|
A|-----------6---------------------6---6/8~--6~-|
F|-----------------------------------7----------|
C|----------------------------------------------| 
G|----------------------------------------------|
C|----------------------------------------------|


Breakdown
D|-------------------------------------------------|
A|-------------------------------------------------|
F|-------------------------------------------------|
C|-5-----------5-----------5-----------9--11--3-0--| x2
G|-5-----------5-----------5-----------9--11--3-0--|
C|-5--3p0--3p0h5--3p0--3p0h5--3p0--3p0h9--11--3-0--|

D|----------------------------------------------------|
A|----------------------------------------------------|
F|----------------------------------------------------|
C|----------------------------------------9--11--3-0--|
G|----------------------------------------9--11--3-0--|
C|-5b--3p0--3p0h5b--3p0--3p0h5b--3p0--3p0h9--11--3-0--|

D|--------------------------------------------------|
A|--------------------------------------------------|
F|--------------------------------------------------|
C|----------------------------------------9--11--3--| x2
G|----------------------------------------9--11--3--|
C|-5b--3p0--3p0h5b--3p0--3p0h5b--3p0--3p0h9--11--3--|




Lyrics:
Wash your heart off with hot water,
wash your mouth out with the maker's meat
Walk until you kindly wander,
just make sure you're wandering towards me
You may wake as king tomorrow,
if tonight you can just stay off the street,
where i know you feel free

This is not for your eyes to see,
so won't you please stop staring at me
I think you better find a way out of here,
'cause i don't think you'll like what i've become
I think you better find a way out of here,
'cause i don't think you'll like what i've become

No, I cannot explain how we always find shelter from the rain
When it gets cold and we get carried away,
Now we suffer from sunday-window pain
You know, we will not be friends tomorrow
if tonight we just get under the sheets, and just feel free

This is not for your eyes to see,
so won't you please stop staring at me
I think you better find a way out of here,
'cause i don't think you'll like what i've become
I think you better find a way out of here,
'cause i don't think you'll like what i've become

You know, it's getting very hard for me,
to look in the mirror with no reflection of my face
But that is not the hardest part for me,
it's just knowing i won't see the light of day 
Добавлено: 22.07.2012
Другие материалы по этой песне:

Страница создана 07.04.2012
http://primanota.ru/he-is-legend/stranger-danger-chords.htm
Привет, Гость.
Предлагаем пройти революционный курс по гитаре.
Подарок от PrimaNota.Ru, забирай!