PrimaNota.ru - самый крупный в мире бесплатный архив песенных текстов, аккордов, табулатур и нот


He Is Legend - Stampede - бас-таба, видео

Регистрация Запомнить меня
Войти через:  Facebook Google Twitter Vk Yandex Mail.ru

He Is Legend - Stampede - бас-таба, видео

Печатать
Просмотров: 149
Уроки эстрадного вокала в Санкт-Петербурге
INTRO
G|--------------------------------------------------------------|
D|--------------------------------------------------------------|
A|--------------------------------------------------------------|
D|-0-0h35-0---0-0h35-0--0306050356---0-0h35-0---0-0h35-000000000|x1

Verse
G|-----------------------------------------|
D|-----------------------------------------|
A|---------3232-355------------------------|
D|-0-35-30---------------------------------|x8

Pre-Chorus
G|--------------------------------------------------------------|
D|--------------------------------------------------------------|
A|--------------------------------------------------------------|
D|-3333333333333333-2222222222222222----------------------------|x1

Chorus
G|----------------|
D|----------------|
A|----------------|
D|-0-0h35-0-------|x8

Repeat Verse x4
Repeat Pre-Chorus x1
Repeat Chorus x8

Breakdown
G|--------------------------------------------------------------|
D|--------------------------------------------------------------|
A|--------------------------------------------------------------|
D|-6-666666-5-555555-00-3p0-00-3p0-00-3p0-000-------------------|x4

Repeat Chorus x8
Then:
G|-----------|
D|-----------|
A|-----------|
D|-0~--------|
REST.

More Breakdown.
G|-----------------|
D|-----------------|
A|-----------------|
D|--0-3p0-5p3------|x8

Repeat First Breakdown x4
Repeat Intro x1
Repeat Verse x8

END.
Добавлено: 06.03.2012
Другие материалы по этой песне:

Страница создана 06.03.2012
http://primanota.ru/he-is-legend/stampede-chords.htm
Привет, Гость.
Предлагаем пройти революционный курс по гитаре.
Подарок от PrimaNota.Ru, забирай!