PrimaNota.ru - самый крупный в мире бесплатный архив песенных текстов, аккордов, табулатур и нот


He Is Legend - Party Time - таба, видео

Регистрация Запомнить меня
Войти через:  Facebook Google Twitter Vk Yandex Mail.ru

He Is Legend - Party Time - таба, видео

Печатать
Просмотров: 103
-----------------------------------------------------------------
Party Time! - He Is Legend
-----------------------------------------------------------------
Tabbed by: millarso (Jake Miller)
Email: millarso2.0@gmail.com
Tuning: Drop C

Intro
Both Guitars
D|-----------------------|
A|-----------------------|
F|-----------------------|
c|-3--0--3--6--3--6--9\--|
G|-3--0--3--6--3--6--9\--|
C|-3--0--3--6--3--6--9\--|

Intro 2
Both Guitars
D|--------------------------|
A|-12-----15-----12-----10~-|
F|-14b16--17b19--14b16--10~-|
c|--------------------------|
G|--------------------------|
C|--------------------------|

D|-------------------------------------------|
A|-12-----15-----12--------------------------|
F|-14b16--17b19--14b16--10--10-10-10-10------|
c|----------------------10--10-10-10-10-10-7-|
G|-----------------------8---8--8--8--8-10-7-|
C|--------------------------------------10-7-|

Section 1
Both Guitars
D|-----------------------------------------------------------------------|
A|-----------------------------------------------------------------------|
F|----------------------------------------------------10--10--10-10------|
c|-8--9-9-9-9-8-0-11--12-12-12-12-11-0-8--9-9-9-9-8-0-10--10--10-10-10-7-|x2
G|-8--9-9-9-9-8-0-11--12-12-12-12-11-0-8--9-9-9-9-8-0--8---8---8--8-10-7-|
C|-8--9-9-9-9-8-0-11--12-12-12-12-11-0-8--9-9-9-9-8-0---------------10-7-|

Section 2
| Guitar 1 (Reverb & a little delay)
|D|--------------10*----------|
|A|-12--------12-----9~---10\-|
|F|-----10~-------------------|
|c|---------------------------|x2
|G|---------------------------|
|C|---------------------------|
|
| Guitar 2
|D|-----------------------------------------------------------------------------------------|
|A|-----------------------------------------------------------------------------------------|
|F|----------------------------------------------------10--10-10-10-10-----10--10-10-10-----|
|c|-6---6---6---6---9----9-------6---6-6---6---6---6---10--10-10-10-10-10--10--10-10-10-----|x2
|G|---9---9---9---9---12---12--8---8-----9---9---9---9--8---8--8--8--8-10---8---8--8--8-----|
|C|--------------------------------------------------------------------10---------------3-4-|
NOTE: For all the single picked notes above in Gtr 2, play every second one staccato 
(google it if you have to)

Section 3
Both Guitars
D|------------------------|
A|------------------------|
F|------------------------|
c|-5----6----7----6-------|
G|-5----7----7----7-------|
C|-5----6----7----6----/\-|

Section 4
Both Guitars
D|------------------------------------------------------------------|
A|------------------------------------------------------------------|
F|------------------------------------------------------------------|
c|-5-5-5-5-5-5-5-555-5-5-5-5-5-5-556-6-6-6-6-6-6-666-6-6-6-6-6-6-66-|
G|-5-5-5-5-5-5-5-555-5-5-5-5-5-5-557-7-7-7-7-7-7-777-7-7-7-7-7-7-77-|
C|-5-5-5-5-5-5-5-555-5-5-5-5-5-5-556-6-6-6-6-6-6-666-6-6-6-6-6-6-66-|
   PM - - - - - - - - - - - - - - - - - - - - - - - - - - - - - - -|

D|--------------------------------------------------------|
A|--------------------------------------------------------|
F|--------------------------------------------------------|
c|-7-7-7-7-7-7-7-777-7-7-7-7-7-7-7-8-8-8-8-8-8-8-8--------|
G|-7-7-7-7-7-7-7-777-7-7-7-7-7-7-7-9-9-9-9-9-9-9-9--------|
C|-7-7-7-7-7-7-7-777-7-7-7-7-7-7-7-8-8-8-8-8-8-8-8-(bass)-|
   PM - - - - - - - |

Section 5
|  Lead 1
|D|-------------------------------------------------------------------------------|
|A|--------------------------------------12-12-12-12-12---------------------------|
|F|-11--11-11--11-12--14\-7-7-7-7-7--14\-----------------11/14-14-14-14-14-12--11-|
|c|-------------------------------------------------------------------------------|x2
|G|-------------------------------------------------------------------------------|
|C|-------------------------------------------------------------------------------|
|
|  Lead 2
|D|-------------------------------------------------------------------|
|A|-------------------------------------------------------------------|
|F|--8--8-8--8-9--11\-4-4-4-4-4--11\-4-4-4-4-4--8/11-11-11-11-11-9--8-|
|c|-------------------------------------------------------------------|x2
|G|-------------------------------------------------------------------|
|C|-------------------------------------------------------------------|

Rhythm (plays the same thing through all of the lead parts)
D|------------------------------------------------------|
A|------------------------------------------------------|
F|-11-1111-1111--7--7-7--7-7--4--4-4--4-4--2--2-2--2-2--|
c|--9--9-9--9-9--5--5-5--5-5--2--2-2--2-2--0--0-0--0-0--|x4
G|--9--9-9--9-9--5--5-5--5-5--2--2-2--2-2--0--0-0--0-0--|
C|--9--9-9--9-9--5--5-5--5-5--2--2-2--2-2--0--0-0--0-0--|

|  Lead 1
|D|----------------14b15r14--------------14b15r14\--------------------------|
|A|-----/15--14h15----------15-14--15-12------------------------------------|
|F|-11----------------------------------------------11/14-14-14-14-14-12-11-|
|c|-------------------------------------------------------------------------|
|G|-------------------------------------------------------------------------|
|C|-------------------------------------------------------------------------|
|
|  Lead 2
|D|----------------11b12r11-------------11b12r11\-----------------------|
|A|-----/12--11h12----------12-11--12-9---------------------------------|
|F|-8----------------------------------------------8/11-11-11-11-11-9-8-|
|c|---------------------------------------------------------------------|
|G|---------------------------------------------------------------------|
|C|---------------------------------------------------------------------|

|  Lead 1
|D|---------------------------------------------------------------------------|
|A|--------------------------------------12-12-12-12-12-----------------------|
|F|-11--11-11--11-12--14\-7-7-7-7-7--14\-----------------11/14-14-14-14-14-12-|
|c|---------------------------------------------------------------------------|
|G|---------------------------------------------------------------------------|
|C|---------------------------------------------------------------------------|
|
|  Lead 2
|D|----------------------------------------------------------------|
|A|----------------------------------------------------------------|
|F|--8--8-8--8-9--11\-4-4-4-4-4--11\-4-4-4-4-4--8/11-11-11-11-11-9-|
|c|----------------------------------------------------------------|
|G|----------------------------------------------------------------|
|C|----------------------------------------------------------------|

Repeat Section 1

Section 6 (almost identical to Section 2 without lead line)
Both Guitars
D|-----------------------------------------------------------------------------------------|
A|-----------------------------------------------------------------------------------------|
F|----------------------------------------------------10--10-10-10-10-----10--10-10-10-----|
c|-6---6---6---6---9----9-------6---6-6---6---6---6---10--10-10-10-10-10--10--10-10-10-----|
G|---9---9---9---9---12---12--8---8-----9---9---9---9--8---8--8--8--8-10---8---8--8--8-----|
C|--------------------------------------------------------------------10---------------3-4-|

D|-------------------------------------------------------------------------------------------------|
A|-------------------------------------------------------------------------------------------------|
F|---------------------------<9-9-9-9-9-9-9>-----------------10--10-10-10-10-----10--10-10-10------|
c|-6---6---6---6---9----9--------------------6---6---6---6---10--10-10-10-10-10--10--10-10-10------|
G|---9---9---9---9---12---12-<9-9-9-9-9-9-9>---9---9---9---9--8---8--8--8--8-10---8---8--8--8------|
C|---------------------------------------------------------------------------10---------------3-4--|

NOTE: Each guitar should pick one of the two harmonics above

Transition
D|-------------|
A|-------------|
F|-------------|
c|-5-----------|
G|-5-----------|
C|-5-------/-\-|

REPEAT SECTION 4

REPEAT SECTION 5

Transition
D|-----------------------------------------------------|
A|-----------------------------------------------------|
F|-11------------------------11------------------------|
c|--9------------3-0-3-6-3-6--9------------3-0-3-6-3-3-|
G|--9-(let-ring)-3-0-3-6-3-6--9-(let-ring)-3-0-3-6-3-3-|
C|--9------------3-0-3-6-3-6--9------------3-0-3-6-3-3-|
                                                   . .

Section 7 (mixture of intro and Section 1)
|  Guitar 1
|D|--------------------------|
|A|-12-----15-----12-----10~-|
|F|-14b16--17b19--14b16--10~-|
|c|--------------------------|x2
|G|--------------------------|
|C|--------------------------|
|
|  Guitar 2
|D|-----------------------------------------------------------------------|
|A|-----------------------------------------------------------------------|
|F|----------------------------------------------------10--10--10-10------|
|c|-8--9-9-9-9-8-0-11--12-12-12-12-11-0-8--9-9-9-9-8-0-10--10--10-10-10-7-|x2
|G|-8--9-9-9-9-8-0-11--12-12-12-12-11-0-8--9-9-9-9-8-0--8---8---8--8-10-7-|
|C|-8--9-9-9-9-8-0-11--12-12-12-12-11-0-8--9-9-9-9-8-0---------------10-7-|

|  Guitar 1 (Solo, Wah)
|D|----------------------(gradual-bend-and-gradual-release)---------|
|A|----------------------9b10----------10-10-10-10-10-10-10-10-10r9-|
|F|-7--------7---9p7---7-9b10-10-10-10-10-10-10-10-10-10-10-10-10r9-|
|c|----9-7h9---9-----9----------------------------------------------|
|G|-----------------------------------------------------------------|
|C|-----------------------------------------------------------------|
|
|  Guitar 2
|D|-----------------------------------------------------------------------|
|A|-----------------------------------------------------------------------|
|F|----------------------------------------------------10--10--10-10------|
|c|-8--9-9-9-9-8-0-11--12-12-12-12-11-0-8--9-9-9-9-8-0-10--10--10-10-10-7-|
|G|-8--9-9-9-9-8-0-11--12-12-12-12-11-0-8--9-9-9-9-8-0--8---8---8--8-10-7-|
|C|-8--9-9-9-9-8-0-11--12-12-12-12-11-0-8--9-9-9-9-8-0---------------10-7-|

|  Guitar 1 (Solo, Wah)
|D|---------------------------------16-------------13-------13-|
|A|------------------------------17----17----13b15----13h15----|
|F|-7--------7---9p7---7---14b16----------16-------------------|
|c|----9-7h9---9-----9-----------------------------------------|
|G|------------------------------------------------------------|
|C|------------------------------------------------------------|
|
|  Guitar 2
|D|-----------------------------------------------------------------------|
|A|-----------------------------------------------------------------------|
|F|----------------------------------------------------10--10--10-10------|
|c|-8--9-9-9-9-8-0-11--12-12-12-12-11-0-8--9-9-9-9-8-0-10--10--10-10-10-7-|
|G|-8--9-9-9-9-8-0-11--12-12-12-12-11-0-8--9-9-9-9-8-0--8---8---8--8-10-7-|
|C|-8--9-9-9-9-8-0-11--12-12-12-12-11-0-8--9-9-9-9-8-0---------------10-7-|

NOTE: I don't have a Wah or a pitch shifter, so I can't make too many indications on when to Wah or
how far to shift up. Listen to the track

|  Guitar 1 (Solo, Pitch Shifter/Harmonizer)
|D|-13b15----r13-15b17----b18----------------------(gradual-release)---------------------|
|A|-(Shift-Up-1-Octave)------------------------------------------------------------------|
|F|--------------------------------------------------------------------------------------|
|c|--------------------------------------------------------------------------------------|
|G|--------------------------------------------------------------------------------------|
|C|--------------------------------------------------------------------------------------|
|
|  Guitar 2
|D|---------------------------------------------------------------------------------------|
|A|---------------------------------------------------------------------------------------|
|F|---------------------------------------------------------------------------------------|
|c|-5----6----7----6----------------------------------------------------------------------|
|G|-5----7----7----7-----5-555-555-555-555-555-555-555-557-777-777-777-777-777-777-777-77-|
|C|-5----6----7----6-----5-555-555-555-555-555-555-555-556-666-666-666-666-666-666-666-66-|
                        |PM - - - - - - - - - - - - - - - - - - - - - - - - - - - - - - -|

|  Guitar 1 (Solo, Pitch Shifter/Harmonizer)
|D|---------(gradual-release)-------------r15--------------|
|A|--------------------------------------------------------|
|F|--------------------------------------------------------|
|c|--------------------------------------------------------|
|G|--------------------------------------------------------|
|C|-------------------------------------------------(bass)-|
|
|  Guitar 2
|D|--------------------------------------------------------|
|A|--------------------------------------------------------|
|F|--------------------------------------------------------|
|c|---------------------------------8-8-8-8-8-8-8-8--------|
|G|-7-777-777-777-777-777-777-777-7-9-9-9-9-9-9-9-9--------|
|C|-7-777-777-777-777-777-777-777-7-8-8-8-8-8-8-8-8-(bass)-|
   |PM - - - - - - - - - - - - - -|

REPEAT SECTION 5

Transition
D|------------------|
A|------------------|
F|------------------|
c|-9----------------|
G|-9----------------|
C|-9-----9-9-9-7-9\-|

Outro
Both Guitars
D|-----------------------------------------------------------------------|
A|-----------------------------------------------------------------------|
F|----------------------------------------------------10--10--10-10------|
c|-8--9-9-9-9-8-0-11--12-12-12-12-11-0-8--9-9-9-9-8-0-10--10--10-10-10-7-|
G|-8--9-9-9-9-8-0-11--12-12-12-12-11-0-8--9-9-9-9-8-0--8---8---8--8-10-7-|
C|-8--9-9-9-9-8-0-11--12-12-12-12-11-0-8--9-9-9-9-8-0---------------10-7-|

D|-----------------------------------------------------------------------------------------------|
A|-----------------------------------------------------------------------------------------------|
F|----------------------------------------------------10--10-10-10-10-----10--10-10-10-10--------|
c|-8--9-9-9-9-8-0-11--12-12-12-12-11-0-8--9-9-9-9-8-0-10--10-10-10-10-10--10--10-10-10-10-10-7-9-|
G|-8--9-9-9-9-8-0-11--12-12-12-12-11-0-8--9-9-9-9-8-0--8---8--8--8--8-10---8---8--8--8--8-10-7-9-|
C|-8--9-9-9-9-8-0-11--12-12-12-12-11-0-8--9-9-9-9-8-0-----------------10------------------10-7-9-|

Pretty fun song. The solo is a little funky and I'm not 100% on most of it because I don't use Wah
much. The lead parts in the Chorus/Section 5 were tough to hear over the Bass and Rhythm, but I
think I got most of the main notes.
I hope this works for you.
Please rate & comment.
Thanks,
millarso
Добавлено: 16.07.2013
Другие материалы по этой песне:
  • Аккорды и текст

Страница создана 16.07.2013
http://primanota.ru/he-is-legend/party-time-chords.htm
Привет, Гость.
Предлагаем пройти революционный курс по гитаре.
Подарок от PrimaNota.Ru, забирай!