PrimaNota.ru - самый крупный в мире бесплатный архив песенных текстов, аккордов, табулатур и нот


He Is Legend - Mushroom River - текст песни, таба, видео

Регистрация Запомнить меня
Войти через:  Facebook Google Twitter Vk Yandex Mail.ru

He Is Legend - Mushroom River - текст песни, таба, видео

Печатать
Просмотров: 123
He Is Legend - Mushroom River
Guitars are both tuned to Drop C with the low C tuned down to an A (A-G-C-F-A-d)
. Palm Mute
* Pinch Harmonic

Intro:
Guitar 1
|-------|
|-------|
|-------|x7
|-------|
|4-5----|
|2-0----|

Guitar 2 (Enter after 4 measures)
|-----------------|----|-----10-9--|
|9-12-10-9-9b10r9-|-x3-|9-12-------|
|-----------------|----|-----------|
|-----------------|----|-----------|
|-----------------|----|-----------|
|-----------------|----|-----------|

Verse 1:
Guitar 1
|-----------------------------|
|-----------------------------|
|-----------------------------|x4
|-----------------------------|
|-------5b------5b-----5b-----|
|2-0-2-----0--2----0-2----0-1-|

|-----------------------------|
|-----------------------------|
|-----------------------------|x4
|-----------------------------|
|-----------------------------|
|2-0-2-2h3-----2h3----2h3-----|
       . .     . .    . .

Guitar 2
|-----------------------------|
|-----------------------------|
|-----------------------------|x4
|-------3b------3b-----3b-----|
|-----------------------------|
|2-0-2-----0--2----0-2----0-1-|

(With tremolo effect)
|-----------------------------|
|-----------------------------|
|-----------------------------|x4
|-----------------------------|
|-----------------------------|
|2-0-2--3--0--2-3--0-2-3--0-1-|

PreChorus:
Both Guitars
|----------------|
|----------------|
|----------------|
|11--7--7--7-7-7-|
|9---5--8--8-8-8-|
|----------------|

Chorus:
Both Guitars
|--------------------------------|
|--------------------------------|
|7---7---7---7-9---9---6---6---6-|x3
|--9---9---9-----9---9---9---9---|
|--------------------------------|
|--------------------------------|

|--------------------------------|
|7---7---------------------------|
|--------9---9---7---7---9---9---|
|--9---9---9---9---9---9---9---9-| Repeat
|--------------------------------| Chorus
|--------------------------------|

Break:
Guitar 1
|-------|
|-------|
|-------|
|-------|
|4-5----|
|2-0----|

Guitar 2
|-----------------|-----10-9--|
|9-12-10-9-9b10r9-|9-12-------|
|-----------------|-----------|
|-----------------|-----------|
|-----------------|-----------|
|-----------------|-----------|

Verse 2:
Guitar 1
|-----------------------------|
|-----------------------------|
|-----------------------------|x4
|-----------------------------|
|-------5b------5b-----5b-----|
|2-0-2-----0--2----0-2----0-1-|

|-----------------------------|
|-----------------------------|
|-----------------------------|x4
|-----------------------------|
|-----------------------------|
|2-0-2-2h3-----2h3----2h3-----|
       . .     . .    . .

Guitar 2
|-----------------------------|
|-----------------------------|
|-----------------------------|x4
|-------3b------3b-----3b-----|
|-----------------------------|
|2-0-2-----0--2----0-2----0-1-|

(With tremolo effect)
|-----------------------------|
|-----------------------------|
|-----------------------------|x4
|-----------------------------|
|-----------------------------|
|2-0-2--3--0--2-3--0-2-3--0-1-|

Chorus:
Both Guitars
|--------------------------------|
|--------------------------------|
|7---7---7---7-9---9---6---6---6-|x3
|--9---9---9-----9---9---9---9---|
|--------------------------------|
|--------------------------------|

|--------------------------------|
|7---7---------------------------|
|--------9---9---7---7---9---9---|
|--9---9---9---9---9---9---9---9-| Repeat
|--------------------------------| Chorus
|--------------------------------|

Bridge:
Guitar 1
|------------------------------------------------|
|------------------------------------------------|
|------------------------------------------------|
|------------------------------------------------|
|9-9-9-9-9-9-9-9-9-9-9-9-9-9-9-9-8-8-8-8-8-8-8-9-|
|------------------------------------------------|

|------------------------------------------------|
|------------------------------------------------|
|------------------------------------------------|
|------------------------------------------------|
|4-4-4-4-4-4-4-4-8-8-8-8-8-8-8-8-8---------------|
|----------------------------------0-0-0-0-0-0-0-|
                                   . . . . . . .
Guitar 2
|------------------------------------------------|
|------------------------------------------------|
|------------------------------------------------|
|7-7-7-7-7-7-7-7-7-7-7-7-9-9-9-9-6-6-6-6-6-6-6-7-|
|------------------------------------------------|
|------------------------------------------------|

|------------------------------------------------|
|------------------------------------------------|
|------------------------------------------------|
|3-3-3-3-3-3-3-3-7-7-7-7-7-7-7-7-7---------------|
|------------------------------------------------|
|----------------------------------0-0-0-0-0-0-0-|
                                   . . . . . . . |

Break:
Guitar 1
|-------|
|-------|
|-------|
|-------|x3
|4-5----|
|2-0----|

Guitar 2
|-----------------|----|-----10-9--|
|9-12-10-9-9b10r9-|-x3-|9-12-------|
|-----------------|----|-----------|
|-----------------|----|-----------|
|-----------------|----|-----------|
|-----------------|----|-----------|

Outro:
Guitar 1
|--------------------------------|
|--------------------------------|
|--------------------------------|
|--------------------------------|x2
|-------5b-------5b------5b------|
|2-0-2------0-2------0-2-----0-1-|
            (2nd time only)  . .

|--------------------------------|
|--------------------------------|
|--------------------------------|
|--------------------------------|x4
|------*5b------*5b-----*5b------|
|2-0-2------0-2------0-2-----0-1~|
           (Last time only)  . .

Guitar 2
|--------------------------------|
|--------------------------------|
|--------------------------------|
|-------3b-------3b------3b------|x2
|--------------------------------|
|2-0-2------0-2------0-2-----0-1-|
            (2nd time only)  . .

|--------------------------------|
|--------------------------------|
|--------------------------------|
|------*3b------*3b-----*3b------|x4
|--------------------------------|
|2-0-2------0-2------0-2-----0-1~|
           (Last time only)  . .
Добавлено: 01.06.2012
Другие материалы по этой песне:
  • Аккорды и текст

Страница создана 17.05.2012
http://primanota.ru/he-is-legend/mushroom-river-chords.htm
Привет, Гость.
Предлагаем пройти революционный курс по гитаре.
Подарок от PrimaNota.Ru, забирай!