PrimaNota.ru - самый крупный в мире бесплатный архив песенных текстов, аккордов, табулатур и нот


He Is Legend - I Am Hollywood - текст песни, таба, бас-таба, видео

Регистрация Запомнить меня
Войти через:  Facebook Google Twitter Vk Yandex Mail.ru

He Is Legend - I Am Hollywood - текст песни, таба, бас-таба, видео

Печатать
Просмотров: 166
okay so.

GUITAR 1
|------------|
|------------|
|------------|
|--3-4-5-0~--|
|--3-4-5-0~--|
|--3-4-5-0~--|

GUITAR 2
|-----------------------|
|-----------------------|
|-----------------------|
|--3-4-5-0--555---7777--|
|--3-4-5-0--3336665555--|
|--3-4-5-0-----666------|

BOTH GUITARS
|-----------------------|
|-----------------------|
|-----------------------|
|--3-4-5-0--555---7777--|
|--3-4-5-0--3336665555--|
|--3-4-5-0-----666------|

BOTH
|-----------|
|-----------|
|-----------|
|--3-4-5-0--|
|--3-4-5-0--|
|--3-4-5-0--|

GUITAR 1
|--------------------------|
|--9-----9-----9-----------|
|--11b13-11b13-11b13-------|
|-----------------------0--|
|-----------------------0--|
|-----------------------0--|

GUITAR 2
|--------------------------|
|--------------------------|
|--------------------------|
|-----------------------0--|
|-----------------------0--|
|-----------------------0--|

pretty sweet breakdown.
GUITAR 1 just figure out where to place them
|--------------------|   |---------------------|
|--9-----9-----9-----|   |--16----16----16-----|
|--11b13-11b13-11b13-|   |--18b20-18b20-18b20--|
|--------------------|   |---------------------|
|--------------------|   |---------------------|
|--------------------|   |---------------------|

GUITAR 2
|----------------------------------|
|----------------------------------|
|----------------------------------|
|--0--0-00--0-00--0-00--00-0-0-00--|
|--0--0-00--0-00--0-00--00-0-0-00--|
|--0--0-00--0-00--0-00--00-0-0-00--|
PM .  . ..  . ..  . ..  .. . . ..
BOTH GUITARS
|-----------------------|
|-----------------------|
|-----------------------|
|--3-4-5-0--555---7777--|
|--3-4-5-0--3336665555--|
|--3-4-5-0-----666------|

GUITAR 1
|-------------------|
|-------------------|
|-------------------|
|--3-4-5-0--1---/4--|
|--3-4-5-0----3-----|
|--3-4-5-0----------|

GUITAR 2
|-----------------------|
|-----------------------|
|-----------------------|
|--3-4-5-0--555---7777--|
|--3-4-5-0--3336665555--|
|--3-4-5-0-----666------|

GUITAR 1
|-----------------------------------|
|-----------------------------------|
|-----------------------------------|
|--3h4h5---5-7--------------5-6-7---|
|--3h4h5-0-3-5-6-----5-3h5--3-6-7---|
|--3h4h5-------6-3p0----------6-7---|

GUITAR 2
|-----------------------------------|
|-----------------------------------|
|-----------------------------------|
|--3h4h5--------------------5-6-7---|
|--3h4h5-0------------------3-6-7---|
|--3h4h5----------------------6-7---|

BOTH GUITARS
|--------------------------|
|--------------------------|
|--------------------------|
|--5-7-6-------------------|
|--3-5-6-----5-3h5-3---0---|
|------6-3p0---------6-----|

BOTH
|-------0~~--------|     |-------0~~--------|
|-------0~~--------|     |-------0~~--------|
|-------0~~--------|     |-------3~~--------|
|--2~---2~~-3-3-5--|     |--2~-------3-3-5--|
|--2~---2~~-1-1-3--|     |--2~-------1-1-3--|
|--2~---2~~--------|then |--2~--------------|

BOTH GUITARS
|----------------------------------|
|----------------------------------|
|----------------------------------|
|----------------------------3--5--|
|----------------------------1--3--|
|--202520202027202020252020--3--5--|

|-----------------------------------|
|-----------------------------------|
|-----------------------------------|
|----------------------------3------|
|----------------------------1--1*--|
|--202520202027202020252020--3------|
PM ........................

and then it sounds like Guitar 1 hits a whammy bar while playing a
power chord on the sixth fret while it pans through both speakers maybe?

BOTH GUITARS
|-----------------------------------------------------------------|
|-----------------------------------------------------------------|
|-----------------------------------------------------------------|
|--------------------------------------------------------0-3-0----|
|--2-0-2-555-2-0-2-0-2-0-2-777-2-0-2-0-2-0-2-555-2-0-2-0---1---1*-|
|--2-0-2-555-2-0-2-0-2-0-2-777-2-0-2-0-2-0-2-555-2-0-2-0---3------|
PM . . . ... . . . . . . . ... . . . . . . . ... . . . . .   .

GUITAR 1
|------------|
|------------|
|------------|
|--3-4-5-0~--|
|--3-4-5-0~--|
|--3-4-5-0~--|

GUITAR 2
|-----------------------|
|-----------------------|
|-----------------------|
|--3-4-5-0--555---7777--|
|--3-4-5-0--3336665555--|
|--3-4-5-0-----666------|

BOTH GUITARS
|-----------------------|
|-----------------------|
|-----------------------|
|--3-4-5-0--555---7777--|
|--3-4-5-0--3336665555--|
|--3-4-5-0-----666------|

GUITAR 1 
|--------------------|   |---------------------|
|--9-----9-----9-----|   |--16----16----16-----|
|--11b13-11b13-11b13-|   |--18b20-18b20-18b20--|
|--------------------|   |---------------------|
|--------------------|   |---------------------|
|--------------------|   |---------------------|

|----------------------| |----------------------|
|--18----18----18------| |--20----20----20------|
|--20b22-20b22-20b22---| |--22b24-22b24-22b24---|
|----------------------| |----------------------|
|----------------------| |----------------------|
|----------------------| |----------------------|

GUITAR 2
|----------------------------------|
|----------------------------------|
|----------------------------------|
|--0--0-00--0-00--0-00--00-0-0-00--|
|--0--0-00--0-00--0-00--00-0-0-00--|
|--0--0-00--0-00--0-00--00-0-0-00--|
PM .  . ..  . ..  . ..  .. . . ..












Добавлено: 27.03.2012
Другие материалы по этой песне:

Страница создана 27.03.2012
http://primanota.ru/he-is-legend/i-am-hollywood-chords.htm
Привет, Гость.
Предлагаем пройти революционный курс по гитаре.
Подарок от PrimaNota.Ru, забирай!