PrimaNota.ru - самый крупный в мире бесплатный архив песенных текстов, аккордов, табулатур и нот


He Is Legend - Electronic Throat - таба, видео

Регистрация Запомнить меня
Войти через:  Facebook Google Twitter Vk Yandex Mail.ru

He Is Legend - Electronic Throat - таба, видео

Печатать
Просмотров: 210
Уроки эстрадного вокала в Санкт-Петербурге
-------------------------------------------------------------------------------
                         Electronic Throat - He Is Legend
-------------------------------------------------------------------------------
Tabbed by:Ryan Callahan
Email: adrenalinerush12@hotmail.com

if you have any questions or comments please email me!!
by the way, this is only guitar 1 and only the little solo at the beginning. I'm tabbing 
by ear but it sounds pretty much right when you play it!
enjoy!

{{{{{{Tuning: Dropped C}}}}}}}
DON'T FORGET TO TUNE IT TO DROPPED C OR ELSE IT WON'T SOUND RIGHT!!
e|--------------------------------------------------------------------|
B|--10--10----------------------------10--10--------------------------|
G|---9b----9--7----------------7-9-----9b----9-7----------------------|
D|---------------10--7-10-7-10-------------------10-7-10-7-5-3-3p5p3--|
A|--------------------------------------------------------------------|
E|----------------------------------0---------------------------------|


| /  slide up
| \  slide down
| h  hammer-on
| p  pull-off
| ~  vibrato
| +  harmonic
| x  Mute note
===============================================================================
Добавлено: 02.06.2012
Другие материалы по этой песне:

Страница создана 12.04.2012
http://primanota.ru/he-is-legend/electronic-throat-chords.htm
Привет, Гость.
Предлагаем пройти революционный курс по гитаре.
Подарок от PrimaNota.Ru, забирай!