PrimaNota.ru - самый крупный в мире бесплатный архив песенных текстов, аккордов, табулатур и нот


He Is Legend - Dixie Wolf The Seduction Of - текст песни, таба, видео

Регистрация Запомнить меня
Войти через:  Facebook Google Twitter Vk Yandex Mail.ru

He Is Legend - Dixie Wolf The Seduction Of - текст песни, таба, видео

Печатать
Просмотров: 143
Band: He is Legend
Song: Dixie Wolf (The Seduction of ...)
Album: Suck Out the Poison
Tabbed by: Adorn Shadow
Tuning: Drop-C

This is a good tab to start off with, but I am missing some parts so 
feel free to add the parts in.

Intro
D|-------------|
A|-------------|
F|-------------|
C|--2-5-0-2~~--|
G|--2-5-0-2~~--|
C|--2-5-0-2~~--|

D|-----------------------------|
A|-----------------------------|
F|---------9-9-9---------------|
C|--2-x-x--9-9-9--5-5-5--7--5--|3X
G|--2-x-x--7-7-7--5-5-5--7--5--|
C|--2-x-x---------5-5-5--7--5--|

D|----------------------------------------------|
A|----------------------------------------------|
F|---------9-9-9--------------------------------|
C|--2-x-x--9-9-9--------------------------------|
G|--2-x-x--7-7-7--------------------------------|
C|--2-x-x---------8--5h7p5h7p5~~~------5-5h7p5--|

D|------------------------------|
A|------------------------------|
F|------------------------------|
C|------------------------------|3X
G|--7-7-7-10p7-7-10p7-7-10p7-5--|
C|------------------------------|
PM    . .      .      .       

D|---------------------------------|
A|---------------------------------|
F|---------------------------------|
C|----------------------5h7--8--9--|
G|--7-7-7-10p7-7--10p7--5h7--8--9--|
C|----------------------5h7--8--9--|
PM    . .      .       



Verse
D|----------------------------|
A|----------------------------|
F|----------------------------|
C|----------------------------|3X
G|----------------------------|
C|--2--2-2-5p2-2-5p2-2-5p2-0--|
PM     . .     .     .


D|--------------------------------|
A|--------------------------------|
F|--------------------------------|
C|---------------------5h7--8--9--|
G|---------------------5h7--8--9--|
C|--2--2-2-5p2-2-5p2---5h7--8--9--|


Right before the chorus
D|-------------------------|
A|-------------------------|
F|-------------------------|
C|---5~~~~---------7~~~~---|
G|---5~~~~---------7~~~~---|
C|---5~~~~---------7~~~~---|



Pre Chorus (I am the villain to you ...)
D|--------------------------------|
A|--------------------------------|
F|--------------------------------|
C|--2-------0-------7-------5-----|
G|--2-------0-------7-------5-----|
C|--2-------0-------7-------5-----|



Chorus (I am the Hero to you ...)
D|---------------------------------------------------|
A|---------------------------------------------------|
F|---------------------------------------------------|
C|---------------------------------------------------|4X
G|--2--0h2p0-2---0h2p0-2---0h2p0-7-5--x-x-x-x-7-8h9--|
C|--2--0h2p0-2---0h2p0-2---0h2p0-7-5--x-x-x-x-7-8h9--|


Interlude
D|------------------------------------------------------------|
A|------------------------------------------------------------|
F|------------------------------------------------------------|
C|------------------------------------------------------------|
G|--7~~--9/10-9~~--10/12-10~~--10/12-14h15p14h15p14h15p14h15--|2X
C|------------------------------------------------------------|


D|------------------------------------------------------|
A|------------------------------------------------------|
F|------------------------------------------------------|
C|--10-10-10-10-10-10-10-10-10-11-11-11-11-11-11-11-11--|
G|--7--7--7--7--7--7--7--7--7--9--9--9--9--9--9--9--9---|
C|------------------------------------------------------|
PM  .  .  .  .  .  .  .  .  .  .  .  .  .  .  .  .  .


D|-------------------------------------------------------------------|
A|-------------------------------------------------------------------|
F|-------------------------------------------------------------------|
C|--12-12-12-12-12-12-12-12--16-16--16--16-16--16--16-16--16--16-16--|
G|--10-10-10-10-10-10-10-10--14-14--14--14-14--14--14-14--14--14-14--|
C|-------------------------------------------------------------------|
PM  .  .  .  .  .  .  .  .   .  .   .   .  .   .   .  .   .   .  .

End Interlude on 
D|-----------------------------------------------------------|
A|-----------------------------------------------------------|
F|--17-17-17-17-17-17-17-17-16-16-16-16-16-16-16-16----------|
C|-----------------------------------------------------------|
G|--15-15-15-15-15-15-15-15-14-14-14-14-14-14-14-14------7---|
C|-------------------------------------------------------^---|
                                                      __/ \__
           Keep playing this note while rocking your wah pedal
Добавлено: 10.04.2012
Другие материалы по этой песне:

Страница создана 10.04.2012
http://primanota.ru/he-is-legend/dixie-wolf-the-seduction-of-chords.htm
Привет, Гость.
Предлагаем пройти революционный курс по гитаре.
Подарок от PrimaNota.Ru, забирай!