PrimaNota.ru - самый крупный в мире бесплатный архив песенных текстов, аккордов, табулатур и нот


He Is Legend - Clouds - текст песни, таба, видео

Регистрация Запомнить меня
Войти через:  Facebook Google Twitter Vk Yandex Mail.ru

He Is Legend - Clouds - текст песни, таба, видео

Печатать
Просмотров: 122
Artist: He Is Legend
Song: (((louds
Album: Suck Out The Poison
Transcribed by: Brandon Yates (UG Forum - ThisFireBurns22)
Date: April 22nd, 2009

I'm so surprised of the lack of Suck Out The Poison tabs on UG.  
I've taken it on myself to tab the songs out because it really is an
awesome album. This is a very long song (8:35) and really only consists of a few.  
There really aren't too many variations of them either.  I put a few timestamps to 
indicate where you can first find the part.  Hope this helps!  Enjoy:

-----------------------------------------------------------------------------------
(((louds
-----------------------------------------------------------------------------------


Main Riff
D|---------------------------------------|
A|---------------------------------------|
F|---------------------------------------|
C|---------------------------------------|
G|---------------------------------------|
C|-12--10-12~-0-10/16-16~-10--9h10-10~---|

D|---------------------------------------------|
A|---------------------------------------------|
F|---------------------------------------------|
C|---------------------------------------------|
G|---------------------------------------------|
C|-0--10-12~-0-10/16-16~-10--99101012121010----|
pm                           .. . . . . . .

D|---------------------------------------|
A|---------------------------------------|
F|---------------------------------------|
C|---------------------------------------|
G|---------------------------------------|
C|-12--10-12~-0-10/16-16~-10--9h10-10~---|

D|---------------------------------------|
A|---------------------------------------|
F|---------------------------------------|
C|---------------------------------------|
G|---------------------------------------|
C|-0--10-12~-9-10-6-7--------3b4r3-------|



Chorus (1:03-132)

Bass notes
D|-------------------|
A|-------------------|
F|-------------------|
C|-------------------|
G|-0----0----3----5--|
C|-0----0----3----5--|

Guitar Lead (Roughly)
D|----------------------------------------------------------------------------------|
A|----------------------------------------------------------------------------------|
F|-7-7-7-7-7-7-7-7-7-7-7-7-7-7-7-7-10-10-10-10-10-10-10-10-12-12-12-12-12-12-12-12--|
C|----------------------------------------------------------------------------------|
G|----------------------------------------------------------------------------------|
C|----------------------------------------------------------------------------------|

D|--------------------------------------------------------------------------|
A|--------------------------------------------------------------------------|
F|-7-7-7-7-7-7-7-7-7-7-7-7-7-7-7-7-10-10-10-10-10-10-10-10-9-9-9-9-9-9-9-9--|
C|--------------------------------------------------------------------------|
G|--------------------------------------------------------------------------|
C|--------------------------------------------------------------------------|



Transition (3:00-3:04)
D|---------------------------------------|
A|---------------------------------------|
F|---------------------------------------|
C|---------------------------------------|
G|-------------------0-0-0-0-0-0-0-0-----|
C|-12--0-0-0-0-0-0-0-0-0-0-0-0-0-0-0-----|
pm     . . . . . . .



Chorus (3:04-3:34) "Mirror, mirror on the wall"
D|---------------------------------------------------|
A|---------------------------------------------------|
F|---------------------------------------------------|
C|--------------------------------3b-----------------| x4
G|-88888885--5555555--------5-3-5--------------------|
C|-88888885--5555555--0--0------------5-3-5b6r5-3-0--|

(3:34-3:47)
D|---------------------------------|
A|---------------------------------|
F|---------------------------------|
C|--------------3b-----------------| x4
G|--------5-3-5--------------------|
C|--0--0------------5-3-5b6r5-3-0--|



Transition (3:47-4:02)
D|-------------------------------------------------------------|
A|-------------------------------------------------------------|
F|-------------------------------------------------------------|
C|-------------------------------------------------------------|
G|-0--------0---------0-----------------------0-0-0-0-0-0-0-0--|
C|-0----0-0-0-----0-0-0----12\0-0-0-0-0-0-0-0-0-0-0-0-0-0-0-0--|
pm      . .       . .         . . . . . . . .           



Bridge (4:02-5:00)
Guitar 1
D|---------------------------------------|
A|---------------------------------------|
F|---------------------------------------|
C|---------------------------------------| x4
G|-88888885--5555555--00000000-00000000--|
C|-88888885--5555555--00000000-00000000--|

Guitar 2
D|--------------------------------------------------------------------------|
A|--------------------------------------------------------------------------|
F|-1414141414141412--1212121212121212--12\10101010101010-1010101010101010---|
C|--x-x-x-x-x-x-x-x---x-x-x-x-x-x-x-x---x--x-x-x-x-x-x-x--x-x-x-x-x-x-x-x---|
G|-1212121212121210--1010101010101010--10\-9-9-9-9-9-9-9--9-9-9-9-9-9-9-9---|
C|--------------------------------------------------------------------------|



Lyrics:
I'm a blind man
In a dark room
And I'm searching for that black cat
I gotta move before he moves
Cause I think he's crossed my every path
I'm a bad man
And you know that
But you're still standing on my doormat
With a mirror in each hand
And I'm gonna knock you down again

Mirror, mirror can't you see
That something's got a hold on me
And I'm not feeling very well
Mirror, mirror on the wall
I'm not sure who made you fall
I don't remember anything

I'm a blind man
In a dark room
And I'm looking for that black cat
I gotta move before he moves
Cause I think he's crossed my every path
I'm a bad man
And with that said
You drew a 13 on my forehead
I can't let you come back in
If you're planning on leaving me again

Mirror, mirror on the floor
You're showing me something I'm sure
Lying at my feet
Mirror, mirror all around
Each face lying on the ground
They're laughing at everything

I'm a blind man
In a dark room
And I'm looking for that black cat
I gotta move before he moves
Cause I think he's crossed my every path
I'm a sick man
So stay away
And baby stop walking over my grave
I've got half a mind to doubt
That my bad luck is ever running out

Mirror, mirror on the wall
It was me who made you fall
Mirror, mirror can't you see
You have got a hold on me



















Добавлено: 29.06.2012
Другие материалы по этой песне:
  • Аккорды и текст

Страница создана 29.06.2012
http://primanota.ru/he-is-legend/clouds-chords.htm
Привет, Гость.
Предлагаем пройти революционный курс по гитаре.
Подарок от PrimaNota.Ru, забирай!