PrimaNota.ru - самый крупный в мире бесплатный архив песенных текстов, аккордов, табулатур и нот


He Is Legend - China White Ii - таба, видео

Регистрация Запомнить меня
Войти через:  Facebook Google Twitter Vk Yandex Mail.ru

He Is Legend - China White Ii - таба, видео

Печатать
Просмотров: 99
Artist: He Is Legend
Song: China White II
Album: Suck Out The Poison
Transcribed by: Brandon Yates (UG Forum - ThisFireBurns22)
Date: December 21st, 2008

This album has been out for two years and there are hardly no tabs for it.  
China White II is one of my favorites so here is what I think it is.  This is
100% tabbed out by me, by ear so please give me the credit if you use it.
The number of times played and the timing are pretty easy to catch if you 
are familiar with the song.  I'm not sure if both guitars play the same thing 
or if one just plays an octave higher the whole time, so I just put them 
together into one guitar tab.

Tuning: A-G-C-F-A-D 
(Drop C, with the lowest string dropped an extra one and a half steps)

------------------------------------------------------
CHINA WHITE II
------------------------------------------------------           
Chorus (0:00-0:29)
D|-----------------------------------------------|
A|-----0---0----0---0--------0---0----0----------|
F|---4---4---5----5---5----4---4---5----5--------|
C|-----------------------------------------------|
G|-2--------------------2-----------------2-5-8--|
A|-0~-------------------0~----------------0-3-6--|

Verse(0:29-0:49)
D|---------------------------------------------|
A|---------------------------------------------|
F|---------------------------------------------|
C|---------------------------------------------|
G|-7--55-7--55-7---55-7/10-7--77-5-7-10~-------|
A|-5--33-5--33-5---33-5/8--5--55-3-5-8~---3*---|

Chorus (0:49-1:09)
D|-----------------------------------------------|
A|-----0---0----0---0--------0---0----0----------|
F|---4---4---5----5---5----4---4---5----5--------|
C|-----------------------------------------------|
G|-2--------------------2-----------------2-5-8--|
A|-0~-------------------0~----------------0-3-6--|

Verse(1:10-1:28)
D|---------------------------------------------|
A|---------------------------------------------|
F|---------------------------------------------|
C|---------------------------------------------|
G|-7--55-7--55-7---55-7/10-7--77-5-7-10~-------|
A|-5--33-5--33-5---33-5/8--5--55-3-5-8~---3*---|

Transition (1:28-1:30)
D|-----------|
A|-----------|
F|-----------|
C|-----------| x1
G|-3-3-3-----|
A|-1-1-1-----|

Bass with a wah or envelope filter? (1:30-1:34)

Transition 2 (1:34-1:37)
D|-----------------|
A|-----------------|
F|-----------------|
C|-----------------|
G|--------4h5p4h5--|
A|-6\0-00-2h3p2h3--|

Heavy Part (1:38-2:02)
D|-----------------------------------------------------|
A|-----------------------------------------------------|
F|-----------------------------------------------------|
C|-----------------------------------------------------|
G|-10-9--------10-9--------10-9---------------4h5p4h5--|
A|-8--7-6\0-00-8--7-6\0-00-8--7-6\0-00-6\0-00-2h3p2h3--|

Guitar Break (2:02-2:08)
D|---------|
A|---------|
F|---------|
C|---------| x8
G|-5/2-22--| 
A|---------|

Breakdown (2:09-2:23)
D|-----------------------------------------------------------|
A|-----------------------------------------------------------|
F|-----------------------------------------------------------|
C|-----------------------------------------------------------|
G|--------------------------------------------------4h5p4h5--|
A|-3\0-00-3\0-00-3\0-00-3\0-00-3\0-00-3\0-00-6\0-00-2h3p2h3--|

Breakdown 2 SLOOOOOOWWWW (2:23-2:45)
D|-----------------------------------------------------------|
A|-----------------------------------------------------------|
F|-----------------------------------------------------------|
C|-----------------------------------------------------------|
G|--------------------------------------------------4h5p4h5--|
A|-6\0-00-6\0-00-6\0-00-6\0-00-6\0-00-6\0-00-6\0-00-2h3p2h3--|


Ending (2:45-3:26)
D|-------------------|
A|-------------------|
F|-------------------|
C|-------------------| x1
G|-10----9----7---2--|
A|-8-----7----5---0--|
Добавлено: 29.06.2012
Другие материалы по этой песне:
  • Аккорды и текст

Страница создана 29.06.2012
http://primanota.ru/he-is-legend/china-white-ii-chords.htm
Привет, Гость.
Предлагаем пройти революционный курс по гитаре.
Подарок от PrimaNota.Ru, забирай!