PrimaNota.ru - самый крупный в мире бесплатный архив песенных текстов, аккордов, табулатур и нот


He And She - Blue Sky - таба, видео

Регистрация Запомнить меня
Войти через:  Facebook Google Twitter Vk Yandex Mail.ru

He And She - Blue Sky - таба, видео

Печатать
Просмотров: 53
Blue Sky - He & She

A great song in an open tuning called DADGAD, it's fairly self explanatory but 
here's what you do:

E  tune down to D
B  tune down to A
G
D
A
E  tune down to D


Capo 2nd


Intro and Verse


D--0--0--0-0-0-0---0-0---0-0---0--0--0-0-0-0---0-0---0-0---|
A--0--0--0-0-0-0---0-0---0-0---0--0--0-0-0-0---0-0---0-0---|
G--4--4--2-2-2-2---2-2---2-2---4--4--2-2-2-2---2-2---2-2---|
D--5--5--0-0-0-4---4-4---4-4---5--5--0-0-0-4---4-4---4-4---|
A--0--0--0-0-0-0---0-0---0-0---0--0--0-0-0-0---0-0---0-0---|
D--------0-0-0-0---0-0---0-0---0--0--0-0-0-0---0-0---0-0---|

D--0--0--0-0-0-0---0-0---0-0---0--0--0-0-0-0---0-0---0-0---|
A--0--0--0-0-0-0---0-0---0-0---0--0--0-0-0-0---0-0---0-0---|
G--4--4--2-2-2-2---2-2---2-2---4--4--2-2-2-2---2-2---2-2---|
D--5--5--0-0-0-4---4-4---4-4---5--5--0-0-0-4---4-4---4-4---|
A--0--0--0-0-0-0---0-0---0-0---0--0--0-0-0-0---0-0---0-0---|
D--------0-0-0-0---0-0---0-0---0--0--0-0-0-0---0-0---0-0---|


Chorus

D--0--0--0-0-0-0---0-0---0-0--|
A--0--0--0-0-0-0---0-0---0-0--|
G--0--0--0-0-0-0---0-0---0-0--|
D--2--2--2-2-2-2---2-2---2-2--|
A--4--4--4-4-4-4---4-4---4-4--|
D-----------------------------|


Refrain

D--0--0--0----0--0--0----0--0--0--0---0--0--|
A--2--2--2----4--4--4----5--5--5--4---4--4--|
G--4--4--4----6--6--6----7--7--7--6---6--6--|
D--0--0--0----0--0--0----0--0--0--0---0--0--|
A--0--0--0----0--0--0----0--0--0--0---0--0--|
D-------------------------------------------|

  "La da da   La da da   La da da hey hey
D--0--0--0----0--0--0----0--0--0--0---0---0-|
A--2--2--2----4--4--4----5--5--5--9---9---2-|
G--4--4--4----6--6--6----7--7--7--11--11--4-|
D--0--0--0----0--0--0----0--0--0--0---0---0-|
A--0--0--0----0--0--0----0--0--0--0---0---0-|
D-------------------------------------------|

 and Everything stays the same"
D---0--0----0-----0------0--0------0--0-----|
A---2--2----4--x--0------0--0------0--0-----|
G---4--4----6--x--2------2--2------2--2-----|
D---0--0----0--x--4------4--4------4--4-----|
A---0--0----0--x--0------0--0------0--0-----|
D-----------------0------0--0------0--0-----|

 " La da da   La da da   La da da hey hey
D--0--0--0----0--0--0----0--0--0--0---0---0-|
A--2--2--2----4--4--4----5--5--5--10--9---2-|
G--4--4--4----6--6--6----7--7--7--12--11--4-|
D--0--0--0----0--0--0----0--0--0--0---0---0-|
A--0--0--0----0--0--0----0--0--0--0---0---0-|
D-------------------------------------------|

"and everything stays the same"
D---0--0----0-----0------0--0------0--0-----|
A---2--2----4--x--0------0--0------0--0-----|
G---4--4----6--x--2------2--2------2--2-----|
D---0--0----0--x--4------4--4------4--4-----|
A---0--0----0--x--0------0--0------0--0-----|
D-----------------0------0--0------0--0-----|


Outro

D--0--0--0---0-0---0-0---0-0---0--0--0---0-0---0-0---0-0---|
A--0--0--0---0-0---0-0---0-0---0--0--0---0-0---0-0---0-0---|
G--4--4--2---2-2---2-2---2-2---4--4--2---2-2---2-2---2-2---|
D--5--5--4---4-4---4-4---4-4---5--5--4---4-4---4-4---4-4---|
A--0--0--0---0-0---0-0---0-0---0--0--0---0-0---0-0---0-0---|
D--------0---0-0---0-0---0-0---0--0--0---0-0---0-0---0-0---|

D--0--0--0-0-0-0---0-0---0-0---0---------------------------|
A--0--0--0-0-0-0---0-0---0-0---0---------------------------|
G--0--0--0-0-0-0---0-0---0-0---2---------------------------|
D--2--2--2-2-2-2---2-2---2-2---4---------------------------|
A--4--4--4-4-4-4---4-4---4-4---0---------------------------|
D------------------------------0---------------------------|

They are all the different sections, now here are the lyrics
and the structure so you can follow it:


(Verse 1)
Why does the sky stay blue?
It's probably the same reason that the sun is shining too and
All the birds are whistling tunes
Singing out, shouting out, here's a song for you

(chorus)
If everythings the same then everythings the way that it should be
If everythings the same then everythings the way that it should be

(Refrain)
La da da, la da da, la da da hey hey
And everything stays the same
La da da, la da da, la da da hey hey
And everything stays the same

(verse 2)
Yesterday was cold and grey
Now the night is over we can go outside and play
And all the trees are dancing this way
Shakin and clappin and listen to them say

(chorus)
If everythings the same then everythings the way that it should be
If everythings the same then everythings the way that it should be

(Refrain)
La da da, la da da, la da da hey hey
And everything stays the same
La da da, la da da, la da da hey hey
And everything stays the same

(verse 2)
Running with the wind in my hair
Nothing seems to stop me as I'm flying through the air
And I just don't seem to care
Everyones making fun as they sit and stare

(chorus)
If everythings the same then everythings the way that it should be
If everythings the same then everythings the way that it should be

(Refrain)
La da da, la da da, la da da hey hey
And everything stays the same
La da da, la da da, la da da hey hey
And everything stays the same

(outro)
Ooooh ooooh  oooooh
Ooooh ooooh  oooooh
Ooooh ooooh  oooooh
Ooooh ooooh  oooooh
If everythings the same then everythings the way that it should be


There it is, enjoy everyone!

Dave
Добавлено: 16.08.2015
Другие материалы по этой песне:
  • Аккорды и текст

Страница создана 16.08.2015
http://primanota.ru/he-and-she/blue-sky-chords.htm
Привет, Гость.
Предлагаем пройти революционный курс по гитаре.
Подарок от PrimaNota.Ru, забирай!