PrimaNota.ru - самый крупный в мире бесплатный архив песенных текстов, аккордов, табулатур и нот


Hb - It Is Time - текст песни, таба, видео

Регистрация Запомнить меня
Войти через:  Facebook Google Twitter Vk Yandex Mail.ru

Hb - It Is Time - текст песни, таба, видео

Печатать
Просмотров: 186
Уроки эстрадного вокала в Санкт-Петербурге
----------------------------------------------------------------------------
			     It is Time - HB
----------------------------------------------------------------------------

Tabbed by: Tyler Bledsoe

Tuning: Drop D

I don't know the solo, I'll try to figure it out and post it if I can.

  
  Intro x3
e|-------------------------------------------------------------------------|
B|-------------------------------------------------------------------------|
G|-------------------------------------------------------------------------|
D|-------------------------------------------------------------------------|
A|-5h7-0-0-00-5h7-8p7-0-0-00-10p7-8p7-0-0-00-1515-1414-1010-88-------------|
D|-5h7-0-0-00-5h7-8p7-0-0-00-10p7-8p7-0-0-00-1515-1414-1010-88-------------|
  
  
  Verse 1   
e|-------------------------------------------------------------------------|
B|-------------------------------------------------------------------------|
G|-----------------------------------------14------------------------------|
D|-----------------------------------------14------------------------------|
A|-----------------------------------------12\-----------------------------|
D|-000-000-000---000-000-000---000-000-000-------000-000-000---000-000-000-|
   P.M.- - - - - - - - - - - - - - - - - -|       P.M.- - - - - - - - - - - 

e|-------------------------------------------------------------------------|
B|-------------------------------------------------------------------------|
G|-------------------------------------------------------------------------|
D|-------------------------------------------------------------------------|
A|-------------------------------------------------------------------------|
D|-000-000-000---000-000-000-----------------------------------------------|
   - - - - - - - - - - - - -|
 
  
  Pre-Chorus
e|-------------------------------------------------------------------------|
B|-------------------------------------------------------------------------|
G|-------------------------------------------------------------------------|
D|-------------------------------------------------------------------------|
A|-0-000-000-000-000-000-000-0010-10108-888-888-888-888-888-888-887-775-555|
D|-0-000-000-000-000-000-000-0010-10108-888-888-888-888-888-888-887-775-555|
   P.M.- - - - - - - - - - - - - - - - - - - - - - - - - - - - - - - - - - - 

e|-------------------------------------------------------------------------|
B|-------------------------------------------------------------------------|
G|-------------------------------------------------------------------------|
D|-------------------------------------------------------------------------|
A|-555-555-5510-101010-101010-101010-10108--7-7-7-7-7-7------------3p2-----|
D|-555-555-5510-101010-101010-101010-10108--7-7-7-7-7-7----------3---------|
  - - - - - - - - - - - - - - - - - - - - - - - - - -|
 
  
  Chorus x2									
e|-------------------------------------------------------------------------|
B|-------------------------------------------------------------------------|
G|-------------------------------------------------------------------------|
D|-------------------------------------------------------------------------|
A|-000-000-0-000---000-000-0-000---888-888-8-888---555-55101010-88-8-------|
D|-000-000-0-000---000-000-0-000---888-888-8-888---555-55101010-88-8-------|
   P.M.- - - - - - - - - - - - - - - - - - - - - - - - - - -|   --|

  
  Repeat Intro

  
  Verse 2
e|-------------------------------------------------------------------------|
B|-------------------------------------------------------------------------|
G|-------------------------------------------------------14----------------|
D|-------------------------------------------------------14----------------|
A|-------------------------------------------------------12\---------------|
D|-000-000-000---000-000-000---000-000-000---000-000-000-------000-000-000-|
   P.M.- - - - - - - - - - - - - - - - - - - - - - - - -|      P.M.- - - - 

e|-------------------------------------------------------------------------|
B|-------------------------------------------------------------------------|
G|-------------------------------------------------------------------------|
D|-------------------------------------------------------------------------|
A|-------------------------------------------------------------------------|
D|-000-000-000---000-000-000---000-000-000---------------------------------|
   - - - - - - - - - - - - - - - - - - - -|

  
  Chorus

  
  Solo Rhythm
e|-------------------------------------------------------------------------|
B|-------------------------------------------------------------------------|
G|-------------------------------------------------------------------------|
D|-------------------------------------------------------------------------|
A|-8----10-----0---0---0-0---1-0---5---7---0-000-000-000-008-888-885-555-55|
D|-8----10\----0---0---0-0---1-0---5---7---0-000-000-000-008-888-885-555-55|
                                             P.M.- - - - - - - - - - - - -|

  Pre-Chorus

  
  Chorus (Play Twice)

  
  End on
e|-------------------------------------------------------------------------|
B|-------------------------------------------------------------------------|
G|-------------------------------------------------------------------------|
D|-------------------------------------------------------------------------|
A|-0-0---------------------------------------------------------------------|
D|-0-0---------------------------------------------------------------------|

Enjoy!


************************************

| P.M. palm mute
| \    slide down
| h    hammer-on
| p    pull-off

************************************
Добавлено: 04.07.2012
Другие материалы по этой песне:

Страница создана 26.02.2012
http://primanota.ru/hb/it-is-time-chords.htm
Привет, Гость.
Предлагаем пройти революционный курс по гитаре.
Подарок от PrimaNota.Ru, забирай!