PrimaNota.ru - самый крупный в мире бесплатный архив песенных текстов, аккордов, табулатур и нот


Hazwan - Cinta Tiga Segi - таба, видео

Регистрация Запомнить меня
Войти через:  Facebook Google Twitter Vk Yandex Mail.ru

Hazwan - Cinta Tiga Segi - таба, видео

Печатать
Просмотров: 89
http://www.kovideo.net/lyrics/b/Banduan/Cinta-Tiga-Segi.html

Intro

e|-----------------------------------------------------------------|
b|-8-7h8p7----7-8-8s10--7h8p7---------------8-7h8p7----------------|
g|---------9------------------7--7-7s8-8------------9--7h9-9-------|
d|----------------------------------------9------------------------|
a|-----------------------------------------------------------------|
E|-----------------------------------------------------------------|

e|-----------------------------------------------------------------|
b|-------8-7h8p7---7-8-8s10---10s12-10---7-10-8-7-------7-8-8s10-8-|
g|---------------9--------------------------------9-8-9------------|
d|---7s9-----------------------------------------------------------|
a|-7---------------------------------------------------------------|
E|-----------------------------------------------------------------|

e|-----------------------------------------------------------------|
b|-7-7h8-----7h8p7-------------------------------------------------|
g|-------9---------9-8---------------------------------------------|
d|----------------------10-9---------------------------------------|
a|-----------------------------------------------------------------|
E|-----------------------------------------------------------------|

 Verse (plucking)

 Em D B7 Em  Em D B7 Em
 Am D Em     C D  Em

 Em Am D G C C B7 B7
 C D Em
 Am D Em  C D  Em

e|-----------------------------------------------------------------|
b|-----8-7h8p7-----7-8-8s10-8-7-7h8-7----------7-8-7-8-10-10h12----|
g|-------------9-9---------------------9-8-8h9---------------------|
d|-7s9-------------------------------------------------------------|
a|-----------------------------------------------------------------|
E|-----------------------------------------------------------------|

e|-----------------------------------------------------------------|
b|-10h12-10---8-7---7-------7-8-10--8p7-8h10-10s12-10-8-7-7h8-7----|
g|----------------9---8-8-9----------------------------------------|
d|-----------------------------------------------------------------|
a|-----------------------------------------------------------------|
E|-----------------------------------------------------------------|

e|-----------------------------------------------------------------|
b|-------------10--8-7-7h8-7--10-8-7-8-----------------------------|
g|-8h9-8---8-9-------------------------9-8-8h9---------------------|
d|-------9---------------------------------------------------------|
a|-----------------------------------------------------------------|
E|-----------------------------------------------------------------|

e|-----------------------------------------------------------------|
b|-7-8-7h8-8s10-7-8-7h8-8s10--10s12-10-8-8---7-7h8-7-----8p7-7h8---|
g|---------------------------------------------------9-9-----------|
d|-----------------------------------------------------------------|
a|-----------------------------------------------------------------|
E|-----------------------------------------------------------------|

e|------------------------------------------------------------------|
b|-8h10-8-7-s12-10-8-7--8-7-------7-8-10-10s12-10-8-7-8-7-------7-8-|
g|--------------------------9-8-9-------------------------9-8-9-----|
d|------------------------------------------------------------------|
a|------------------------------------------------------------------|
E|------------------------------------------------------------------|

e|-----------------------------------------------------------------|
b|-10-10-----------------------------------------------------------|
g|-----------------------------------------------------------------|
d|-----------------------------------------------------------------|
a|-----------------------------------------------------------------|
E|-----------------------------------------------------------------|

 Am D Em     C D  Em
 Em Am D G C C B7 B7
 C D Em
 Am D Em  C D  Em

 Em D B7 Em  Em D B7 Em
 Em D
 Em D Em
Добавлено: 04.05.2012
Другие материалы по этой песне:

Страница создана 01.03.2012
http://primanota.ru/hazwan/cinta-tiga-segi-chords.htm
Привет, Гость.
Предлагаем пройти революционный курс по гитаре.
Подарок от PrimaNota.Ru, забирай!