PrimaNota.ru - самый крупный в мире бесплатный архив песенных текстов, аккордов, табулатур и нот


Hayley Westenra - Prayer - текст песни, таба, видео

Регистрация Запомнить меня
Войти через:  Facebook Google Twitter Vk Yandex Mail.ru

Hayley Westenra - Prayer - текст песни, таба, видео

Печатать
Просмотров: 120
-------------------------------------------------------------------------------
                             PRAYER - Hayley Westenra
-------------------------------------------------------------------------------
Tabbed by:guiguig
E-mail:

Tuning: Standard
Capo : First Fret

Intro
                                                x3
e|---------7------------3-----------0--------------|
B|-------------------------------------------3-----|
G|------9-----------5----------2-----------0-------|
D|----9----------5----------2------------4---------|
A|-7----------3----------0-------------2-----------|
E|-------------------------------------------------|

e|---------7------------3-----------0----------------------------------|
B|-------------------------------------------3--------3------3---------|
G|------9-----------5----------2-----------0--------0------0-----0-----|
D|----9----------5----------2------------4--------4------4-----4-------|
A|-7----------3----------0-------------2-------------------------------|
E|---------------------------------------------------------------------|

Verse
  Hush, lay down your troubled mind ...          x7
e|---------7------------3-----------0--------------|
B|-------------------------------------------3-----|
G|------9-----------5----------2-----------0-------|
D|----9----------5----------2------------4---------|
A|-7----------3----------0-------------2-----------|
E|-------------------------------------------------|

  Will soothe - so close your weary eyes
e|---------7------------3-----------0----------------------------------|
B|-------------------------------------------3--------3------3---------|
G|------9-----------5----------2-----------0--------0------0-----0-----|
D|----9----------5----------2------------4--------4------4-----4-------|
A|-7----------3----------0-------------2-------------------------------|
E|---------------------------------------------------------------------|

Chorus
Let your arms enfold us
e|---------------------------------------|
B|-------1--------3--------3---------1---|
G|-----0--------0--------4---------0-----|
D|---2--------4--------4---------2-------|
A|-3--------5--------2---------3---------|
E|---------------------------------------|

 Through the dark of night
e|---------------------------------------|
B|-------1--------3--------3--------3----|
G|-----0--------0--------4--------4------|
D|---2--------4--------4--------4--------|
A|-3--------5--------2--------2----------|
E|---------------------------------------|
 
 Will your angels hold us
e|---------------------------------------|
B|-------1--------3--------3---------1---|
G|-----0--------0--------4---------0-----|
D|---2--------4--------4---------2-------|
A|-3--------5--------2---------3---------|
E|---------------------------------------|

 Till we see the light
e|---------------------------------------|
B|-------1--------3----------------------|
G|-----0--------0------------------------|
D|---2--------4--------------------------|
A|-3--------5----------------------------|
E|---------------------------------------|

Guitar solo
e|--------------------2---------------------------5~---5h7h8--7--------------|
B|-5p3--1p0--------3-----3-3p1p0-----------5--7h8----------------8p7---------|
G|-----------2~---------------------------x--------------------------9~------|
D|-------------------------------2~------------------------------------------|
A|---------------------------------------------------------------------------|
E|---------------------------------------------------------------------------|

e|-----------------------------------------------10--------------------------|
B|--8----------------8-7----10-7-------------12~-----10~-----5h7-------------|
G|-----9~-7--------9-----7-------------11-12---------------------7~----------|
D|----------10~--------------------------------------------------------------|
A|-------------------------------7~/-----------------------------------------|
E|---------------------------------------------------------------------------|

Verse
  
Sleep, angels will watch over you ...            x8
e|---------7------------3-----------0--------------|
B|-------------------------------------------3-----|
G|------9-----------5----------2-----------0-------|
D|----9----------5----------2------------4---------|
A|-7----------3----------0-------------2-----------|
E|-------------------------------------------------|

Chorus
 
 Let your arms enfold us
e|---------------------------------------|
B|-------1--------3--------3---------1---|
G|-----0--------0--------4---------0-----|
D|---2--------4--------4---------2-------|
A|-3--------5--------2---------3---------|
E|---------------------------------------|

 Through the dark of night
e|---------------------------------------|
B|-------1--------3--------3--------3----|
G|-----0--------0--------4--------4------|
D|---2--------4--------4--------4--------|
A|-3--------5--------2--------2----------|
E|---------------------------------------|

 Will your angels hold us
e|---------------------------------------|
B|-------1--------3--------3---------1---|
G|-----0--------0--------4---------0-----|
D|---2--------4--------4---------2-------|
A|-3--------5--------2---------3---------|
E|---------------------------------------|

 Till we see the light
e|------------------------7---------------|
B|-------1--------3---------------3-------|
G|-----0--------0-------9-------0---------|
D|---2--------4-------9-------4-----------|
A|-3--------5-------7-------5-------------|
E|----------------------------------------|

 Let your arms enfold us
e|---------------------------------------|
B|-------1--------3--------3---------1---|
G|-----0--------0--------4---------0-----|
D|---2--------4--------4---------2-------|
A|-3--------5--------2---------3---------|
E|---------------------------------------|

 Through the dark of night
e|---------------------------------------|
B|-------1--------3--------3--------3----|
G|-----0--------0--------4--------4------|
D|---2--------4--------4--------4--------|
A|-3--------5--------2--------2----------|
E|---------------------------------------|

 Will your angels hold us
e|---------------------------------------|
B|-------1--------3--------3---------1---|
G|-----0--------0--------4---------0-----|
D|---2--------4--------4---------2-------|
A|-3--------5--------2---------3---------|
E|---------------------------------------|

 Till we see the light
e|---------------------------------------|
B|-------1--------3----------------------|
G|-----0--------0------------------------|
D|---2--------4--------------------------|
A|-3--------5----------------------------|
E|---------------------------------------|

Ending

e|---------7------------3-----------0--------------|
B|-------------------------------------------3-----|
G|------9-----------5----------2-----------0-------|
D|----9----------5----------2------------4---------|
A|-7----------3----------0-------------2-----------|
E|-------------------------------------------------|

e|---------7------------3-----------0--------------------12+--|
B|-------------------------------------------3-------12+------|
G|------9-----------5----------2-----------0------------------|
D|----9----------5----------2------------4--------------------|
A|-7----------3----------0-------------2----------7+----------|
E|------------------------------------------------------------|


************************************

| /   slide up
| \   slide down
| h   hammer-on
| p   pull-off
| ~   vibrato
| +   harmonic
| x   Mute note
| b   Bend
| pb  Pre-bend
| br  Bend release
| pbr Pre-bend release
| brb Bend release bend

************************************
Добавлено: 13.04.2016
Вам также может быть интересно:
Другие материалы по этой песне:
  • Аккорды и текст

Страница создана 22.06.2012
http://primanota.ru/hayley-westenra/prayer-chords.htm
Привет, Гость.
Предлагаем пройти революционный курс по гитаре.
Подарок от PrimaNota.Ru, забирай!