PrimaNota.ru - самый крупный в мире бесплатный архив песенных текстов, аккордов, табулатур и нот


Hayko Cepkin - Yeni Bir Gun - таба, видео

Регистрация Запомнить меня
Войти через:  Facebook Google Twitter Vk Yandex Mail.ru

Hayko Cepkin - Yeni Bir Gun - таба, видео

Печатать
Просмотров: 66
Уроки эстрадного вокала в Санкт-Петербурге
-------------------------------------------------------------------------------
                             Yeni Bir Gün - Hayko Cepkin
-------------------------------------------------------------------------------
Tabbed by: Mert YÜRÜK
E-mail: mertyuruq@hotmail.com

Tuning: Capo 7th fret

intro 

e|-----------------------------1--0h1-1--0h1p0----------------------------------------------0-----|
B|--1--0-------0-1-3--1-0------3---------------3-3--1-3--5h6p5----1-0-------0-1-3--1--0-----1-----|
G|--0----2-2-------2------2----2-------------------------------0-------2--------2-----0--0--2-----|
D|--2--------------0------2----0---------------------------------------2--------0-----2-----2-----|
A|--0--------------0------0--------------------------------------------0--------0-----2-----0-----|
E|------------------------0--------------------------------------------0--------------------------|




Em7      Am     Em7  Am                Em7      Am     Bm    Em/B   Em/B  Bm
Gözlerim kurşun gibi ağır, ağır açıldı bu sabah   merhaba dünya


G/B                   C6                      D6                  Em/B   Em/B  Bm
penceremdeki güvercin tahta masam boş şişeler Can dostum çomar merhaba  

G/B                    C6                    D6                   Em/B 
Tatlı komşu Ayşe teyze,emekli Salih öğretmen yeni bir gün doğdu merhaba

Em/B         Am
dostlar merhaba

     Em7 Bm  Am    Em7
Yeni bir gün doğdu,merhaba..


e|----------------------------------------------------------------------------------------------------|
B|----------------------------------------------------------------------------------------------------|
G|----------------------------------------------------------------------------------------------------|
D|---------------7----7-9---------------7--7----------------------7----7-9---------------7--7---------|
A|--7-9-10--9-10---10------7-9-10--9-10------10-9----7-9-10--9-10---10------7-9-10--9-10------10-9-7--|
E|----------------------------------------------------------------------------------------------------|

e|----------------------------------------------------------------------------------------------------|
B|----------------------------------------------------------------------------------------------------|
G|----------------------------------------------------------------------------------------------------|
D|--7----------7----------7-----------7---------------------------------------------------------------|
A|----10-9-7-7---10-9-7-----10-9-7-7----10-9-7--------------------------------------------------------|
E|----------------------------------------------------------------------------------------------------|



Em7: x 7 9 7 8 7
Am : x x 7 9 10 8  or   x x 7 9 10 7
Em : 7 7 9 9 x x
C6 : x x 10 9 10 8  or  x x 10 9 10 x
D6 : x x 12 11 12 10  or  x x 12 11 10 x
Bm : 7 9 9 7 7 7
Em/B : 7 7 9 9 8 7 
G/B  : 7 10 9 7 8 7
 

************************************

| /   slide up
| \   slide down
| h   hammer-on
| p   pull-off
| ~   vibrato
| +   harmonic
| x   Mute note
| b   Bend
| pb  Pre-bend
| br  Bend release
| pbr Pre-bend release
| brb Bend release bend

************************************
Добавлено: 15.12.2015
Другие материалы по этой песне:
  • Аккорды и текст

Страница создана 15.12.2015
http://primanota.ru/hayko-cepkin/yeni-bir-gun-chords.htm
Привет, Гость.
Предлагаем пройти революционный курс по гитаре.
Подарок от PrimaNota.Ru, забирай!