PrimaNota.ru - самый крупный в мире бесплатный архив песенных текстов, аккордов, табулатур и нот


Hayehudim - Yachol Lehiyot - таба

Регистрация Запомнить меня
Войти через:  Facebook Google Twitter Vk Yandex Mail.ru

Hayehudim - Yachol Lehiyot - таба

Печатать
Просмотров: 116
Author/Artist: Hayehudim (Official Website: www.hayehudim.com)
Title: Yachol Lehiyot 
Album: Hayehudim, released 1998
Tuning: Standard
Time Signature: 3/4
Tempo: 200 bpm 
Tabbed by: Carmelly 

This intro is so beautiful, I just had to figure it out. I used Transcribe! and Guitar
Pro (both awesome programs.) For those of you who don't have Guitar Pro, I exported an
ascii version :) 

To all the Israelis out there, please submit tab here! I always have a really hard time
finding tab for Israeli songs. Well, actually, the only band I ever look for is this one. Anyway, enjoy! 

e||-------------------|-----------------|-----------0--------|
B||----------------3--|------------3----|--------3-----------|
G||-------------0-----|-------0---------|--0h-2--------------|
D||-------0h-2--------|--4--------------|--------------2/-4--|
A||--3----------------|-----------------|--------------------|
E||-------------------|-----------------|--------------------|


                                                                              
---------------------|------------------|--0h---2---------|------------------|
--0h-3h0-0--0--------|----------3-------|--3--------------|----------3-------|
---------------------|-------2-------2--|------------2----|-------2-------2--|
---------------4--5--|--0---------------|-----------------|--0---------------|
---------------------|------------------|-----------------|------------------|
---------------------|------------------|-----------------|------------------|


                                                               
------------------||-------------------|---------------------||
----------3-------||-------------------|---------------------||
-------2-------2--||*----------0-------|---------------0----*|| 
--0---------------||*-------2----------|--4h-6h4-3--6-------*||
------------------||---4------------4--|---------------------||
------------------||-------------------|---------------------||
                                 

                                                                                
----------3-------|--2---------------|--------------------|--------------0----||
------------------|----------3-------|--------0-----------|-------------------||
-------0-------0--|-------0-------0--|--2h-3--------------|--------2/-3-------||
--2---------------|------------------|-----------2/-4/-5/-|--4/-2-------------||
------------------|------------------|--------------------|-------------------||
------------------|------------------|--------------------|-------------------||

Добавлено: 17.06.2012
Вам также может быть интересно:
Другие материалы по этой песне:

Страница создана 22.05.2012
http://primanota.ru/hayehudim/yachol-lehiyot-chords.htm
Привет, Гость.
Предлагаем пройти революционный курс по гитаре.
Подарок от PrimaNota.Ru, забирай!