PrimaNota.ru - самый крупный в мире бесплатный архив песенных текстов, аккордов, табулатур и нот


Hayehudim - Mechapes Tshuva - бас-таба, видео

Регистрация Запомнить меня
Войти через:  Facebook Google Twitter Vk Yandex Mail.ru

Hayehudim - Mechapes Tshuva - бас-таба, видео

Печатать
Просмотров: 86
---------------------------------------------------------------------------- 
                      MECHAPES TSHUVA - Hayehudim                   
----------------------------------------------------------------------------

Tabbed By : t.a.blomqvist
e-mail: monophonik@f-m.fm

Tuning: Standard 5-String


 Intro
G|---------------------------------|---------------------------------|
D|-----------------1-------------1-|-----------------1-------------1-|
A|-3---3----------3--3-1---1---3---|-3---3----------3--3-1---1---3---|
E|-----------------------3---------|-----------------------3---------|
B|---------------------------------|---------------------------------|
   
G|---------------------------------|---------------------------------|
D|-----------------1-------------1-|-----------------1-------------1-|
A|-3---3----------3--3-1---1---3---|-3---3----------3--3-1---1---3---|
E|-----------------------3---------|-----------------------3---------|
B|---------------------------------|---------------------------------|

 Verse
G|-----------------------------------------------------------------|
D|-----------------------------------------------------------------|
A|-3---3-----------------------------------------------------------| 
E|-----------------4---4-----------1---1-----------3---3-----------|
B|-----------------------------------------------------------------|

G|-----------------------------------------------------------------|
D|-----------------------------------------------------------------|
A|-3---3-----------------------------------------------------------| 
E|-----------------4---4-----------1---1-----------3---3-----------|
B|-----------------------------------------------------------------|

G|-----------------------------------------------------------------|
D|-----------------------------------------------------------------|
A|-3---3-----------------------------------------------------------| 
E|-----------------4---4-----------1---1-----------3---3-----------|
B|-----------------------------------------------------------------|
   
 Pre Chorus
G|-----------------------------------------------------------------|
D|-----------------------------------------------------------------|
A|---------------------------------3---3-----------1---1-----------|
E|-4---4-----------4---4-------------------------------------------|
B|-----------------------------------------------------------------|
  
 Chorus
G|-----------------------------------------------------------------|
D|-----------------------------------------------------------------|
A|-----------------------------------------------------------------|
E|-1---1-----------3---3-----------4---4-----------6---6-----------|
B|-----------------------------------------------------------------|
   
G|-----------------------------------------------------------------|
D|-----------------------------------------------------------------|
A|---------------------------------3---3-----------3---3-----------|
E|-1---1-----------3---3-------------------------------------------|
B|-----------------------------------------------------------------|

G|-----------------------------------------------------------------|
D|-----------------------------------------------------------------|
A|-----------------------------------------------------------------|
E|-1---1-----------3---3-----------4---4-----------6---6-----------|
B|-----------------------------------------------------------------|
 
G|-----------------------------------------------------------------|
D|-----------------------------------------------------------------|
A|-----------------------------------------------------------------|
E|-1---1-----------3---3-----------4---4-----------4---4-----------|
B|-----------------------------------------------------------------|

G|---------------------------------|
D|---------------------------------|
A|---------------------------------| 
E|-4---4-----------4---4-----------|
B|---------------------------------|
   

 Verse
G|-----------------------------------------------------------------|
D|-----------------------------------------------------------------|
A|-3---3-----------------------------------------------------------| 
E|-----------------4---4-----------1---1-----------3---3-----------|
B|-----------------------------------------------------------------|
   
G|-----------------------------------------------------------------|
D|-----------------------------------------------------------------|
A|-3---3-----------------------------------------------------------| 
E|-----------------4---4-----------1---1-----------3---3-----------|
B|-----------------------------------------------------------------|

G|-----------------------------------------------------------------|
D|-----------------------------------------------------------------|
A|-3---3-----------------------------------------------------------| 
E|-----------------4---4-----------1---1-----------3---3-----------|
B|-----------------------------------------------------------------|
   
 Pre Chorus
G|-----------------------------------------------------------------|
D|-----------------------------------------------------------------|
A|---------------------------------3---3-----------1---1-----------|
E|-4---4-----------4---4-------------------------------------------|
B|-----------------------------------------------------------------|
   
 Chorus
G|-----------------------------------------------------------------|
D|-----------------------------------------------------------------|
A|---------------------------------------------------------6-------|
E|-1---1-----------3---3-----------4---4-----------6---6----6\-----|
B|-----------------------------------------------------------------|
   
G|-----------------------------------------------------------------|
D|-----------------------------------------------1-0-----1---------|
A|---------------------------------3---3-------------3-1---3---1---|
E|-1---1-----------3---3-------------------------------------------|
B|-----------------------------------------------------------------|

G|-----------------------------------------------------------------|
D|-----------------------------------------------------------------|
A|-----------------------------------------------------------------|
E|-1---1-----------3---3-----------4---4-----------6---6-----------|
B|-----------------------------------------------------------------|
 
G|-----------------------------------------------------------------|
D|-----------------------------------------------------------------|
A|-----------------------------------------------------------------|
E|-1---1-----------3---3-----------4---4-----------4---4-----------|
B|-----------------------------------------------------------------|

G|---------------------------------|
D|--------13-----------------------|
A|-----10----10--------------------| 
E|-/10----------10\4---4-----------|
B|---------------------------------|
   1   2   3   4   1   2   3   4

 Interlude
G|---------------------------------|---------------------------------|
D|---------------------------------|---------------------------------|
A|-6---6-----------6-4-----------4-|-6---6-----------6-4-----------4-|
E|---------------------6-3-4---6---|---------------------6-3-4---6---|
B|---------------------------------|---------------------------------|
   1   2   3   4   1   2   3   4    
G|---------------------------------|---------------------------------|
D|---------------------------------|---------------------------------|
A|-6---6-----------6-4-----------4-|-6---6-----------6-4-----------4-|
E|---------------------6-3-4---6---|---------------------6-3-4---6---|
B|---------------------------------|---------------------------------|

G|---------------------------------|---------------------------------|
D|---------------------------------|---------------------------------|
A|-6---6-----------6-4-----------4-|-6---6-----------6-4-----------4-|
E|---------------------6-3-4---6---|---------------------6-3-4---6---|
B|---------------------------------|---------------------------------|

G|---------------------------------|
D|---------------------------------|
A|-6---6-----------6-4-----------4-|
E|---------------------6-3-4---6---|
B|---------------------------------|

G|---------------------------------|---------------------------------|
D|-----------------1-------------1-|-----------------1-------------1-|
A|-3---3----------3--3-1---1---3---|-3---3----------3--3-1---1---3---|
E|-----------------------3---------|-----------------------3---------|
B|---------------------------------|---------------------------------|
   1   2   3   4   1   2   3   4    
G|---------------------------------|---------------------------------|
D|-----------------1-------------1-|-----------------1-------------1-|
A|-3---3----------3--3-1---1---3---|-3---3----------3--3-1---1---3---|
E|-----------------------3---------|-----------------------3---------|
B|---------------------------------|---------------------------------|

 Chorus
G|-----------------------------------------------------------------|
D|-----------------------------------------------------------------|
A|-----------------------------------------------------------------|
E|-1---1-----------3---3-----------4---4-----------6---6-----------|
B|-----------------------------------------------------------------|
   
G|-----------------------------------------------5-5-3-0-----------|
D|-------------------------------------------------------3-0-------|
A|---------------------------------3---3---------------------3-0---|
E|-1---1-----------3---3-----------------------------------------3-|
B|-----------------------------------------------------------------|

G|-----------------------------------------------------------------|
D|-----------------------------------------------------------------|
A|-----------------------------------------------------------------|
E|-1---1-----------3---3-----------4---4-----------6---6-----------|
B|-----------------------------------------------------------------|
 
G|-----------------------------------------------------------------|
D|-------------------------------------------------------------6---|
A|---------------------------------------------------------------6-|
E|-1---1-----------3---3-----------4---4-----------4---4----------6|
B|-----------------------------------------------------------------|

G|---------------------------------|
D|---------------------------------|
A|------------------------/8-8-8-6\| 
E|-8---6----4----------------------|
B|---------------------------------|

 Outro
G|---------------------------------|---------------------------------|
D|-----------------1-------------1-|-----------------1-------------1-|
A|-3---3----------3--3-1---1---3---|-3---3----------3--3-1---1---3---|
E|-----------------------3---------|-----------------------3---------|
B|---------------------------------|---------------------------------|
       
G|---------------------------------|---------------------------------|
D|-----------------1-------------1-|-----------------1---------------|
A|-3---3----------3--3-1---1---3---|-3---3----------3--3-1---1--/2---|
E|-----------------------3---------|-----------------------3---------|
B|---------------------------------|---------------------------------|

G|---------------------------------|---------------------------------|
D|-----------------1-------------1-|-----------------1-------------1-|
A|/3--------------3--3-1---1---3---|-3---3----------3--3-1---1---3---|
E|-----------------------3---------|-----------------------3---------|
B|---------------------------------|---------------------------------|
   1   2   3   4   1   2   3   4    
G|---------------------------------|---------------------------------|
D|-----------------1-------------1-|-----------------1---------------|
A|-3---3----------3--3-1---1---3---|-3---3----------3--3-1---1-----1-|
E|-----------------------3---------|-----------------------3-----3---|
B|---------------------------------|---------------------------------|

G|---------------------------------|
D|---------------------------------|
A|-3-------------------------------|
E|---------------------------------|
B|---------------------------------|


| /  slide up
| \  slide down
| h  hammer-on
| p  pull-off
| ~  vibrato
| +  harmonic
| x  Mute note

=============================================================================
The song is dedicated to E. Without you I would've never heard of this song
so thank you for that. You are precious to me.
=============================================================================
Добавлено: 10.03.2012
Другие материалы по этой песне:

Страница создана 10.03.2012
http://primanota.ru/hayehudim/mechapes-tshuva-chords.htm
Привет, Гость.
Предлагаем пройти революционный курс по гитаре.
Подарок от PrimaNota.Ru, забирай!