PrimaNota.ru - самый крупный в мире бесплатный архив песенных текстов, аккордов, табулатур и нот


Hayehudim - At The End Youll Cry - таба

Регистрация Запомнить меня
Войти через:  Facebook Google Twitter Vk Yandex Mail.ru

Hayehudim - At The End Youll Cry - таба

Печатать
Просмотров: 114
Artist: HaYehudim
Album: Fear of Death
Song: At The End You'll Cry
Tuning: Standard

Intro
------------------------------------- x3 -------------------------|
---9-----7-------9-----7-------------      -----------------------|
-------------------------------------      --2---4-----2----------|
--9-9---8-------9-9---8--------------      ---3-----3-------------|
-------7------7------7---------------      - ---0-----0-----------|
-------------------------------------      -----------------------|

--------------------------------------------------------------------|
---9-----7----------------------------------------------------------|
--------------5h7p5--5---------------------5--5h7-5h7--5h7p5---5----|
--9-9---8-----5------5h7p5-5---------------5--5---5----5-----7------|
-------7-------------------5h7p5--------5s7-------------------------|
---------------------------------8----------------------------------|


Verse 1
---------------------------------|
--9--9-9-999--7----77777---------|
--0--0-0-000--0----00000---------|
--9--9-0-999--8----88888---------|
--7--7-7-777--7----77777---------|
---------------------------------|

Chorus

E  F# G F# x3

E  F# G F


Verse 2

----------------------0----------------0---|
-9---7----9---7-------0-------9---7----0---|
-0---0----0---0-------2-------0---0----2---|
-9---8----9---8-------3-------9---8----3---|
-7---7----7---7-------3-------7---7----3---|
----------------------1----------------1---|

(2nd part of 2nd verse)

--------------------------------------------------|
--------------------------------------------------|
---------9----------------9---pinch---------------|
---9-8-9---9-8-9----9-8-9---9-*8------------------|
-7----------------7-------------------------------|
--------------------------------------------------|

Chrous----

Presolo
    F

Solo

E  F# x2 F

Verse 3 (same as verse 2)

Chrous-----
Добавлено: 25.03.2012
Другие материалы по этой песне:
  • Аккорды и текст

Страница создана 25.03.2012
http://primanota.ru/hayehudim/at-the-end-youll-cry-chords.htm
Привет, Гость.
Предлагаем пройти революционный курс по гитаре.
Подарок от PrimaNota.Ru, забирай!