PrimaNota.ru - самый крупный в мире бесплатный архив песенных текстов, аккордов, табулатур и нот


Hayehoodim - Lo Kal - таба

Регистрация Запомнить меня
Войти через:  Facebook Google Twitter Vk Yandex Mail.ru

Hayehoodim - Lo Kal - таба

Печатать
Просмотров: 86
________________________________________________________________________________

hayehoodim - "lo kal"
----------------------

verse:

  G                 F#m
  at kol hayom..
 
  Bm          D     F#7
  haprahim..        novlim..

  G                 F#m
  vehazman..       
 
  Bm          D     Em       F#7
  yesh..            aval begileh..


Chorus:
 
  G        A
  ze lo..          
                 } *3
  D        Bm
  mishehu..
 
  G            A
  veamart..
 
  G            A
  ze lo kal..


small solo:

/-slide
p-pull off
h-hammer on
^-vibrate

e|--------------------------------------------------------------------
B|---------------14-15^-14-14^---------14-17--15p14-15-14-------------
G|----12/14--16----------------/14-16---------------------16----------
D|-----------------------------------------------------------16-------
A|--------------------------------------------------------------------
E|--------------------------------------------------------------------

e|--------------------------------------------------------------------
B|---------14-17--15p14-17--15p14-17-17---15p14-17-17---15p14-14^-----
G|--/14-16------------------------------------------------------------
D|--------------------------------------------------------------------
A|--------------------------------------------------------------------
E|--------------------------------------------------------------------


bat-chen:)


________________________________________________________________________________
     
Добавлено: 16.10.2013
Другие материалы по этой песне:
  • Аккорды и текст

Страница создана 16.10.2013
http://primanota.ru/hayehoodim/lo-kal-chords.htm
Привет, Гость.
Предлагаем пройти революционный курс по гитаре.
Подарок от PrimaNota.Ru, забирай!