PrimaNota.ru - самый крупный в мире бесплатный архив песенных текстов, аккордов, табулатур и нот


Гайдн Франц Йозеф - Minuet Symphony 29 - таба, видео

Регистрация Запомнить меня
Войти через:  Facebook Google Twitter Vk Yandex Mail.ru

Гайдн Франц Йозеф - Minuet Symphony 29 - таба, видео

Печатать
Просмотров: 220
Artist: Joseph F.Haydn
3/31/1732
Minuet Symphony .29
transcribed by S.A, thanks to Bill Tyers for the arrangement

Dedicated to Sarah.K. of W.Falls NY

~*~
Please sustain the bass notes for every measure. I use the Fender GN-45
SCE cutaway grand acoustic. I chose to transcribe this for anyone who
wants to try 'classical'. Or likes music(it's an art) art is classical
If you get the privilege to learn to read music, do it! And please don't
say it's old
it's classical! old is when the Roman empire fell, or any empire that is.
The stars are classical, the moon, it's all classical
Life is classical.
~*~

e|-7-----------------------|-------5----4-----2----0----------|
B|-------------------------|-----------------------------4----|
G|-------------------------|----------------------------------|
D|-------------------------|----------------------------------|
A|-------------------------|------------0----------2----------|
E|-0-----------4-----0-----|-2--------------------------------|


e|-0--------2-----4-----|-4-----5----2----------------|-0-----2-----4-----|
B|----------------------|------------------4----0-----|-------------------|
G|----------------------|-----------------------------|-------------------|
D|----------------------|-----------------------------|-------------------|
A|----------------------|------------2----------0-----|-------------------|
E|-4--------2-----0-----|-2---------------------------|-4-----2-----0-----|


e|-4-------5----2----------------|-6-----7----5----------4-----0----|
B|--------------------4----0-----|------------------7---------------|
G|-------------------------------|----------------------------------|
D|-------------------------------|-----------------------2----------|
A|--------------2----------0-----|------------6---------------------|
E|-2-----------------------------|-4--------------------------------|


e|-------2-----------------0----------|-5-----9----2-----5----4-----0----|
B|-4------------0-----4----------0----|----------------------------------|
G|-4----------------------------------|----------------------------------|
D|--------------1----------2----------|-4----------1----------2----------|
A|------------------------------------|----------------------------------|
E|------------------------------------|----------------------------------|


e|--5-----9-----2-----5----4-----0----4--|--2-----0-----------|
B|---------------------------------------|--2-----------4-----|
G|---------------------------------------|--------1-----------|
D|--4-----------1----------2-------------|--------------4-----|
A|---------------------------------------|--0-----2-----2-----|
E|---------------------------------------|--------------------|


e|--0-----------------|----4-----------------------|
B|--0-----------------|----------------------------|
G|--1-----------------|----------------------------|
D|--2-----------------|----------------2-----------|
A|--------2-----------|----------------------4-----|
E|--------------0-----|----------------------------|


e|----------5----4----2----0----------|----------------------|
B|-------------------------------4----|--2-------2-----2-----|
G|------------------------------------|----------------------|
D|------------------------------------|----------------1-----|
A|--3---------------------------------|--4-------4-----------|
E|-------------------------4----------|----------------------|


e|-------------0-----2----4----0----|--2---------------------------|
B|--2-----4-------------------------|------------------------------|
G|----------------------------------|------------------------------|
D|--2-------------------------------|--------------1---------------|
A|-------------4--------------------|------------------------2-----|
E|----------------------------------|------------------------------|


e|----------4----2----0---------------|--------------------|
B|-------------------------4-----2----|--0-----0-----0-----|
G|------------------------------------|--------------------|
D|------------------------------------|--------------------|
A|--1---------------------------------|--2-----2-----4-----|
E|-------------------------2----------|--------------------|


e|-------------7----7-----6----4----------|
B|-------0---------------------------7----|
G|----------------------------------------|
D|-------1--------------------------------|
A|-----------------------------6----------|
E|------------------7---------------------|


e|--------4----------0------------------|
B|--8----------7----------4-----2-------|
G|--------------------------------------|
D|------------------------2-------------|
A|--7-----------------------------------|
E|-------------9------------------------|


e|------------------------------------|---------------------------|
B|--0---------------------------------|--0-------------2----------|
G|----------3----1---------1-----3----|----------------------3----|
D|--------------------4----2----------|--1-------------2----------|
A|------------------------------------|----------2----------------|
E|--2---------------------------------|----------------2----------|


e|-------------------------------|-------------------------|
B|------0-------------2----------|--0-----0-----2----------|
G|--------------------------3----|--------------------3----|
D|------1-------------2----------|--1-----1-----2----------|
A|------2-------2----------------|--2-----2----------------|
E|--------------------2----------|--------------2----------|


e|-------------------------------|-------------------------|
B|--0-----------------2----------|--0-----0-----2----------|
G|--------------------------3----|--------------------3----|
D|--1-----------------2----------|--1-----1-----2----------|
A|--2-------2--------------------|--2-----2----------------|
E|--------------------2----------|--------------2----------|


e|--------------------0-----2--4----5--|--7-----------------------|
B|--0-----------2--4-------------------|--------------------------|
G|-------------------------------------|--------------------------|
D|--1----------------------------------|--------------------------|
A|--2-----2-----------0----------------|--------------------------|
E|-------------------------------------|--4-----------0-----4-----|


e|--------5----4-----2----0----------|-----0-----2-----4-----|
B|------------------------------4----|-----------------------|
G|-----------------------------------|-----------------------|
D|-----------------------------------|-----------------------|
A|-------------0----------2----------|-----------------------|
E|--2--------------------------------|-----4-----2-----0-----|


e|--4-----5----2----------------|--0-----2-----4-------|
B|-------------------4----0-----|----------------------|
G|------------------------------|----------------------|
D|------------------------------|----------------------|
A|-------------2----------0-----|----------------------|
E|--2---------------------------|--4-----2-----0-------|


e|--4-----5----2----------------|--6-----7----5----------4-----0----|
B|-------------------4----0-----|-------------------7---------------|
G|------------------------------|-----------------------------------|
D|------------------------------|------------------------2----------|
A|-------------2----------0-----|-------------6---------------------|
E|--2---------------------------|--4--------------------------------|


e|----------2---------------0----------|
B|----4----------0-----4----------0----|
G|----4--------------------------------|
D|---------------1----------2----------|
A|-------------------------------------|
E|-------------------------------------|


e|--5-----9----2-----5----4-----0-------|
B|--------------------------------------|
G|--------------------------------------|
D|--4----------1----------2-------------|
A|--------------------------------------|
E|--------------------------------------|



e|--5-----9----2-----5----4-----0----4--|--2-----0-----------|
B|--------------------------------------|--2-----------4-----|
G|--------------------------------------|--------1-----------|
D|--4----------1----------2-------------|--------------4-----|
A|--------------------------------------|--0-----2-----2-----|
E|--------------------------------------|--------------------|


e|--0-------------------|
B|--0-------------------|
G|--1-------------------|
D|--2-------------------|
A|-----------2----------|
E|-----------------0----|
(o)==#
enjoy




     
Добавлено: 15.11.2013
Другие материалы по этой песне:
  • Аккорды и текст

Страница создана 15.11.2013
http://primanota.ru/haydn-joseph/minuet-symphony-29-chords.htm
Привет, Гость.
Предлагаем пройти революционный курс по гитаре.
Подарок от PrimaNota.Ru, забирай!