PrimaNota.ru - самый крупный в мире бесплатный архив песенных текстов, аккордов, табулатур и нот


Hayden - Dynamite Walls - аккорды и текст, таба, видео

Регистрация Запомнить меня
Войти через:  Facebook Google Twitter Vk Yandex Mail.ru

Hayden - Dynamite Walls - аккорды и текст, таба, видео

Печатать
Просмотров: 113
Уроки эстрадного вокала в Санкт-Петербурге
Dynamite Walls
Hayden
"dynamite walls"
-hayden desser
-skyscraper national park, 2001, universal/hardwood
tabbed by ryan ray -
--eclectic_koolaid@hotmail.com>eclectic_koolaid@hotmail.com
email me for the lyrics,  don't post them.
but buy the cd, they're included.

also from hayden:
"everything i long for" *****
"moving careful" *****
"the closer i get" ****
if you haven't already, you should listen to him.
you'll become obsessed forever.

*hayden tuning=one step down
i wanted to be the first to tab this amazing hayden song.  but it's
complicated w/ two guitars, this is only an approximation.  places/tunings
will be wrong, it's just my interpretation of sounds.

intro:
(bass(?), starts the song and drones repeatedly)
F|-------------------|
C|-------------------|
G|-2-2-2-2-2-2-2-2---|
D|-------------------|
                      ?  x2 before the 2nd guitar
d|--------------------------|
A|--0--0--0------0--0---0---|
F|--3--4--6------4--3\------|
C|--2--2--4------4--4\--4---|
G|----------------------2---|
D|--------------------------|
guitar 2 fumbles with these notes, make random things up.
considering i don't have 4 arms, i don't care about it.
d|---------------|----------------|
A|------2-4------|-4/9-9-11-11----|
F|--4-4----------|----------------|
C|---------------|----------------|
G|---------------|----------------|
D|---------------|----------------|
                    fill, at 1:08, when the drums start.
verse one:
also, this starts.  (tabbed for 1 guitar)
d|-----------------------------------|
A|-----------------------------------|
F|-----------------------------------|
C|----11-11-9--11-11-11-9-x-9--------|
G|----9--9--9--9--9--9--9-x-9--------|
D|--7-7--7--7--7--7--7--7-x-7--------|
this is the verse.  that bass is still playin' that B! (A)
the words start after a minute thirty -"open yr eyes.."
(i think for the verses, guitar 2 plays w/ high octaves)
chorus:
standard-D E A
d|-0--------------------------------|
A|-0--------------------------------|
F|-1--------3-------------4---------|
C|-2--------4-------------4---------|
G|-2--------4-------------2---------|
D|-0--------2-----------------------|
"miles away, just up ahead. . ."
repeat, w/ different words for verse 2.
C|----11-11-9--11-11-11-9-x-9--------|
G|----9--9--9--9--9--9--9-x-9--------|
D|--7-7--7--7--7--7--7--7-x-7--------|
chorus 2: exactly the same.
quieter x2
C|----11-11-9--11-11-11-9-x-9--------|
G|----9--9--9--9--9--9--9-x-9--------|
D|--7-7--7--7--7--7--7--7-x-7--------|
repeat the intro for awhile.
guitar 2 becomes more active, but like i said,
i don't care enough to tab it.
after awhile, the lead starts playing sonic things,
and i can appreciate it completely,
but someone else can pick up where i left off.
verse 3=verse 1, only softer and slower.
and at the end, fade away.
someone should do all the fine details of this song...
they're awesome.  but, they could be improvised.
feedback - eclectic_koolaid@hotmail.com

     
Добавлено: 29.07.2013
Другие материалы по этой песне:
  • Аккорды и текст

Страница создана 17.05.2012
http://primanota.ru/hayden/dynamite-walls-chords.htm
Привет, Гость.
Предлагаем пройти революционный курс по гитаре.
Подарок от PrimaNota.Ru, забирай!