PrimaNota.ru - самый крупный в мире бесплатный архив песенных текстов, аккордов, табулатур и нот


Hayate No Gotoku - Honjitsu Mankai Watashi Iro - бас-таба, видео

Регистрация Запомнить меня
Войти через:  Facebook Google Twitter Vk Yandex Mail.ru

Hayate No Gotoku - Honjitsu Mankai Watashi Iro - бас-таба, видео

Печатать
Просмотров: 83
I tabbed this from the piano version so there may be some difference when playing to the 
actual track. I thought it was about time a bass line was created for this so I did it 
myself (this is my first tab so be nice X3)

Bass
                                                     Q    Q    E  E  E  E
G||-------|-------|-------|-------|-------|-------|------------------------|
D||-------|-------|-------|-------|-------|-------|---------------2--------|
A||-------|-------|-------|-------|-------|-------|--2----2----2--------2--|
E||-------|-------|-------|-------|-------|-------|------------------------|


  E  E  E  E  Q    Q       Q    Q    E  E  E  E     E  E  E  Q    E  E  E
------------------------|------------------------|-------------------------|
-----------0------------|---------------0--------|-------------------------|
-----2------------------|------------------------|--4--4--4----------1--1--|
--------1---------------|--2----2----1--------2--|-----------1----1--------|


  Q    Q    E  E  E  E     E  E  E  E  Q    Q       Q    Q    E  E  E  E
------------------------|------------------------|------------------------|
---------------2--------|-----------0------------|------------------------|
--2----2----2--------2--|-----2------------------|------------------------|
------------------------|--------1---------------|--4----4----1--3-----4--|


  E  E  E  Q    E  E  E     E  E  E  E  E  E  E  E     E  E  E  E  E  E  E  E
-------------------------|--------------------------|--------------------------|
-------------------------|--------------------------|--1--1--------1-----------|
--4--4--4----------1-----|--0-----4--0-----4--0-----|--------2--1-----1-----2--|
-----------1----1-----4--|-----0--------0--------0--|--------------------------|


  E  E  E  E  E  E  E  E     E  E  E  E  E  E  E  E
--------------------------|--------------------------|
--------------------------|-----------------2--------|
--1--1--2-----0-----------|--3--3--2-----2--------2--|
-----------3--------2--0--|--------------------------|


  E  E  E  E  E  E  E  E     E  E  E  E  E  E  E  E
--------------------------|--------------------------|
--------------------------|--------------1--2--------|
--1--1--2--4--1-----------|--------0-----------2-----|
--------------------4--4--|--4--4-----------------0--|


  E  E  E  E  E  E  E  E     E  E  E  E  E  E  E  E
--------------------------|--------------------------|
-----------------2--------|--------------------------|
--2--1-----1--------------|-----------------------2--|
--------------------------|--1-----------------------|


  E  E  E  E  E  E  E  E     E  E  E  E  E  E  E  E
--------------------------|--------------------------|
--------------------------|-----------------2--------|
--1--1-----1--------------|--------2-----2--------2--|
-----------------4--------|--------------------------|


  E  E  E  E  E  E  E  E     E  E  Q    E  Q    E     E  E  E  E  E  E  E  E
--------------------------|------------------------|--------------------------|
--------------------------|----------------2-------|--------------------------|
-----2-----1--1-----------|--------2----2-------2--|-----2--1--4--1-----------|
--------------------4--3--|------------------------|--------------------4--3--|


  E  E  E  E  E  Q    E     E  E  E  E  E  E  E  E     E  E  E  E  E  E  E  E
-------------------------|--------------------------|--------------------------|
-------------------------|--------------------------|--------------------1-----|
--------2-----2--2----2--|-----0-----------1--L-----|-----------------3-----1--|
-------------------------|-----------4--------------|--1-----------------------|


  E  E  Q    Q    Q       E  E  E  E  E  E  E  E     E  E  E  Q    E  E  E
-----------------------|--------------------------|-------------------------|
-----------------------|--------------------------|----------------1--------|
--1--------------------|-----------1--1--1-----1--|----------------------4--|
-------------2----4----|--------------------------|--------4--2-------------|


  E  E  E  E  E  E  E     Q    E  Q    E  E  E     Q    Q    E  E  E  E
-----------------------|------------------------|------------0-----------|
-----------------------|---------------------1--|--2----4-------------2--|
--------------------1--|--4----2--1-------------|---------------2--------|
--------------0--------|------------------------|------------------------|


  E  E  Q    E  E  Q       E  E  E  E  E  E  E  E     Q    E  Q    E  E  E
-------------0----------|--------------------------|------------------------|
-----2--4---------------|--0--0--0--0--0--0--0--0--|---------------0--0-----|
----------------2-------|--------------------------|-------2----------------|
-------------------4----|--------------------------|--0-------0----------0--|


  E  E  E  E  E  E  E  E     E  E  E  E  E  E  E  E     E  E  E  Q    E  E  E
--------------------------|--------------------------|-------------------------|
-----0--0--------1--0--2--|--------------------------|-------------------------|
--------------------------|--0-----0--------0-----2--|----------------------0--|
-----------0--------------|-----0-----1--0-----1-----|--0--0--0--0----0--0-----|


  E  E  E  E  E  E  E  E     E  E  E  Q    E  E  E     E  E  E  E  E  E  E  E
--------------------------|-------------------------|-----0--------------------|
-----------------------0--|--0--0--0-------------0--|--0--------------------0--|
--------------------------|-----------0-------------|--------0-----1-----------|
--3--3--3--3--3--2--3-----|-------------------------|--------------------------|


  E  E  E  E  E  Q    E     E  E  E  E  E  E  E  E     E  E  E  H        E
-----0--2--0--3-------0--|--0--0--------------------|-----------------------|
--0--------------0-------|--------------0--0--1-----|-----------------------|
-------------------------|--------------------------|-----2-----------------|
-------------------------|--------0--0-----------0--|--------0--1--------3--|


  E  E  E  E  E  E  E  E     E  E  E  E  E  E  E  E
--------------------------|--------------------------|
--------------------------|--0--3--0-----------------|
--------------------------|-----------4-----------0--|
--------3--3--3-----3--0--|--------------0--3--4-----|


  E  E  E  E  E  E  E  E     E  E  E  E  E  E  E  E     E  E  E  Q    E  E  E
--------------------------|--------------------------|-------------------------|
--------------------------|--------------------------|-------------------------|
--------------4-----4-----|-----4--5--------5--4--5--|--5-----5-------5-----5--|
-----3--0--0-----------2--|--0--------0--0-----------|-------------------------|


  E  E  E  E  E  E  E  E     E  E  E  Q    E  E  E     Q    Q    Q    Q
--------------------------|--0-----0--0-------------|----------------------|
--------------------------|----------------0--------|-----------------0----|
--5-----4-----2-----2-----|-------------------1-----|-------2----2---------|
--------------------------|----------------------0--|--L-------------------|


  E  E  E  E  E  E  E  E     Q.     Q.     E  E     E  E  E  Q    E  E  E
--------------------------|----------------------|-------------------------|
--0--0--0--0--0-----------|----------------------|-----0--0-------0--------|
--------------------------|----------------0--0--|-------------------------|
--------------------------|--0------0------------|-----------0-------0--2--|


  E  E  E  Q    E  E  E     E  E  E  Q    E  E  E     E  E  E  Q    E  E  E
-------------------------|-------------------------|-------------------------|
-------------------------|----------------------0--|-------------------------|
----------------------0--|--------0--2----0--3-----|-----3-------------------|
-----0--3--0----3--0-----|-----4-------------------|--------0--0-------0-----|


  E  E  E  E  E  E  E  E     E  H        Q    E
--------------------------|----------------------|-----|-----|-----|-----|-----|
--------------------------|----------------------|-----|-----|-----|-----|-----|
-----0--0-----0-----0--0--|--0-------------------|-----|-----|-----|-----|-----|
--------------------------|----------------------|-----|-----|-----|-----|-----|






Duration Legend
---------------
W - whole
H - half
Q - quarter
E - 8th
S - 16th
T - 32nd
X - 64th
. - note dotted
|-n-|  - n-tuplets


Tablature Legend
----------------
L - tied note
x - dead note
g - grace note
(n) - ghost note
> - accentuded note
NH - natural harmonic
AH - artificial harmonic
TH - tapped harmonic
SH - semi harmonic
PH - pitch harmonic
h - hammer on
p - pull off
b - bend
br - bendRelease
pb - preBend
pbr - preBendRelease
brb - bendReleaseBend
\n/ - tremolo bar dip
\n - tremolo bar dive
-/n - tremolo bar Release up
/n\ - tremolo bar inverted dip
/n - tremolo bar return
-\n - tremolo bar Release down
S - shift slide
s - legato slide
/ -  slide into from below or out of upwards
\ -  slide into from above or out of downwards
~ - vibrato
W - wide vibrato
tr - trill
TP - tremolo picking
T - tapping
S - slap
P - pop
< - fade in
^ - brush up
v - brush down
Добавлено: 24.06.2012
Другие материалы по этой песне:

Страница создана 05.06.2012
http://primanota.ru/hayate-no-gotoku/honjitsu-mankai-watashi-iro-chords.htm
Привет, Гость.
Предлагаем пройти революционный курс по гитаре.
Подарок от PrimaNota.Ru, забирай!