PrimaNota.ru - самый крупный в мире бесплатный архив песенных текстов, аккордов, табулатур и нот


Hayashibara Megumi - Run All The Way - таба, видео

Регистрация Запомнить меня
Войти через:  Facebook Google Twitter Vk Yandex Mail.ru

Hayashibara Megumi - Run All The Way - таба, видео

Печатать
Просмотров: 121
Intro: Chorus "oohs," bells,

Guitar1:
D|--5s6~~--|
Guitar2:
Ab


shitsubou no kakera ni sasere taoreteyuku jibun no yume, mita
     A                                                      Abm
hidoku, furue me ga samete  yoru no naka de torinokosareta ki ga shita
A         Ab         A  Ab B
sabishii yo   munashii yo

e|-----------16--14--12--|
B|--13b14----------------|
                                                 sound: B|--10t12--|
keredo genjitsu no yume wa shindari shinai to shinjiteru yo
                                                 sound: G|--4h6--|
hitori ja nai, nakama sae ireba  wakachiaeru tsuyosa ga aru kara
A          Ab        A Ab B
ayamachi mo   yorokobi mo

* kokoro nante sugu ni kizutsuku shi
asu ni nareba  mata denaoseru shi
Ab               Ab                   Ab
yume wo akiramenai  "kyou" ni makenai

                 A   A
** I believe in my soul! hyouteki wo mezaseba
A   A
My soul!  kodou ga hayaku naru
atsuku itaku setsunaku  michi wa tsuzuku
      A   A
Every up down!  nabottari  ochitari
A   A
Up down!  dakedo kujikenai de
subete, chikara ni kaeyou  RUN ALL THE WAY!

Guitar Solo:

Lead into solo: A|--4-4-4--2-4-4-4--| bass line, repeat, bass line, solo

                                           Sweep--------
e|--------------15h17b19--17p15----15--17b-|--14---------------/14-15-17-14---|
B|--------16h17-----------------17---------|-----15---------------------------|
G|--16h18----------------------------------|--------16------------------------|
D|-----------------------------------------|-----------17s16------------------|
A|-----------------------------------------|----------------------------------|
E|-----------------------------------------|----------------------------------|

e|-----------------------------------------------14h15h17b19--17p15----15-15--|
B|--------------------------------------13h15h17--------------------17--------|
G|-----------------------------12h14h16---------------------------------------|
D|--------------------12h14h16------------------------------------------------|
A|-----------12h14h15---------------------------------------------------------|
B|--12h14h15------------------------------------------------------------------|

e|-17b19r18b20r18b19r17p15--15-17----|----------------------------------|
B|--------------------------------17-|--14b16r14p12--14-----------------|
G|-----------------------------------|------------------11-13-----------|
D|-----------------------------------|------------------------11-13-----|
A|-----------------------------------|------------------------------11--|
E|-----------------------------------|----------------------------------|

e|-----------------------11-14b16r14p11-14-|--17b19---19r17-16-14--16p14------|
B|-----------------12-14-------------------|------------------------------17--|
G|--11h12h13-11-13-------------------------|----------------------------------|
D|-----------------------------------------|----------------------------------|
A|-----------------------------------------|----------------------------------|
E|-----------------------------------------|----------------------------------|

e|--------14--------16---------16b18r16~~--|
B|-----14-----16---------17----------------|
G|--15-----------17---------18-------------|
D|-----------------------------------------|
A|-----------------------------------------|
E|-----------------------------------------|

A
jinsei wa marude  keisan dekinai kakehiki bakari da ne
    A                                                          sound: e|--19b21--|
dakedo koboreochiru wake, ikanai yo  nanika miete kuru made wa
A        Ab       A Ab B
ganbaru sa   ganbaru sa

F#  
iiwake shite  shoubu oriru no wa
raku na koto sa  demo, modoranai yo
F#                A                   Ab
yume wo akiramenai  "kyou" to iu hi wa
 
sound: e|--19~~--|
I believe in my soul!  kagakitsuzuketai
My soul!  oikaketsuzuketai
motto motto kagirinai yume, daite
Everybody, up down!  nobottari ochitari
Up down!  dakedo kujikenai de
      sound: G|--13--|         sound: e|--19--|
subete, chikara ni kaeyou  RUN ALL THE WAY!

*repeat
**repeat

Outtro:
                                                             /--------fading
e|---19~~p16--|--23~~--|--------------------------|--18t19--|--22b24s0--|
B|------------|--------|--14--14-12----12--14-----|---------|-----------|
G|------------|--------|------------13--------13--|---------|-----------|
D|------------|--------|--------------------------|---------|-----------|
A|------------|--------|--------------------------|---------|-----------|
E|------------|--------|--------------------------|---------|-----------|

Добавлено: 22.05.2012
Другие материалы по этой песне:
  • Аккорды и текст

Страница создана 22.05.2012
http://primanota.ru/hayashibara-megumi/run-all-the-way-chords.htm
Привет, Гость.
Предлагаем пройти революционный курс по гитаре.
Подарок от PrimaNota.Ru, забирай!