PrimaNota.ru - самый крупный в мире бесплатный архив песенных текстов, аккордов, табулатур и нот


Hawthorne Heights - Until Her Heart Stops - текст песни, таба, бас-таба, видео

Регистрация Запомнить меня
Войти через:  Facebook Google Twitter Vk Yandex Mail.ru

Hawthorne Heights - Until Her Heart Stops - текст песни, таба, бас-таба, видео

Печатать
Просмотров: 129
Here it is finaly

Until Her Heat Stops by Hawthorne heights
Standard Tunning (Eadgbe)
Not 100%
But like 95%


|.| Palm mute
|~| Let Ring
|\| Pick-Slides

Any Suggestions or request

Myspace.com/xxxprojectjillxxx

PLease Comment and Rate


Intro. Repeat Twice (2x)
00:00
_/Guitar 1\_
E---------------------------------------------------------------------------|
B---------------------------------------------------------------------------|
G---------------------------------------------------------------------------|
D-8-8-8-8-8-8-8-8-8-8-6-6-6-6-6-6-6-6-6-6-4-4-4-4-4-4-4-4-4-4-2-2-2-2-2-2-2-|
A-6-6-6-6-6-6-6-6-6-6-4-4-4-4-4-4-4-4-4-4-2-2-2-2-2-2-2-2-2-2-2-2-2-2-2-2-2-|
E-6-6-6-6-6-6-6-6-6-6-4-4-4-4-4-4-4-4-4-4-2-2-2-2-2-2-2-2-2-2-0-0-0-0-0-0-0-|
    . . . . .   .   .   . . . .   .   . .   . . . . .   .   .   . .   .   .

_/Guitar 2\_
E-------------------------------------------------------------------------|
B-------------------------------------------------------------------------|
G-------------------------------------------------------------------------|
D--6-6-6-6-6-6-6-6-6--4-4-4-4-4-4-4-4--2-2-2-2-2-2-2-2--2-2-2-2-2-2-2-2-2-|
A--6-6-6-6-6-6-6-6-6--4-4-4-4-4-4-4-4--2-2-2-2-2-2-2-2--2-2-2-2-2-2-2-2-2-|
E--6-6-6-6-6-6-6-6-6--4-4-4-4-4-4-4-4--2-2-2-2-2-2-2-2--0-0-0-0-0-0-0-0-0-|
     . . . . . . . .    . . . . . . .    . . . . . . .    . . . . . . . .

00:23
[Guitar 1]
  |     2x          |   |      2x        |  |     2x        |
E-14-0-12-0-11-0-12-0---12-0-10-0-9-0-10-0--10-0-8-0-7-0-8-0------|
B-----------------------------------------------------------------|
G-----------------------------------------------------------------|
D-----------------------------------------------------------------|
A-----------------------------------------------------------------|  |
E-----------------------------------------------------------------|  |
                                                                    |
[Guitar 2]                            pick-slide on second time.    | 2x
E----------------------------------------------------------------|   |
B----------------------------------------------------------------|   |
G----------------------------------------------------------------|
D-6~--------------------4~-------------------2~------------------|
A-6~--------------------4~-------------------2~------------------|
E-6~--------------------4~-------------------2~-----------\\\\\\-|


00:48

"remember you said"

_/Guitar 1\_
E---------------------------------------------------------------------|
B---------------------------------------------------------------------|
G---------------------------------------------------------------------|
D-8-8-8-8--6-6-6-6--4-4-4-4-6-6-6-6-8-8-8-8-4-4-4-4-6-6-6-6-8-8-8-8---|
A-6-6-6-6--4-4-4-4--2-2-2-2-4-4-4-4-6-6-6-6-2-2-2-2-4-4-4-4-6-6-6-6---| |
E-6-6-6-6--4-4-4-4--2-2-2-2-4-4-4-4-6-6-6-6-2-2-2-2-4-4-4-4-6-6-6-6---| |
  . . . .  . . . .                                                     |
                                                                       |2X
[Guitar 2]                                                             |
E---------------------------------------------------------------------| |
B---------------------------------------------------------------------| |
G---------------------------------------------------------------------|
D-6-6-6-6--4-4-4-4----------------------------------------------------|
A-6-6-6-6--4-4-4-4----------------------------------------------------|
E-6-6-6-6--4-4-4-4----------------------------------------------------|
  . . . .  . . . .


01:08

"Dont say its over"
_/Guitar 1\_
E-------------------------------------------------------------------|
B-------------------------------------------------------------------|
G-------------------------------------------------------------------|
D-4-4-4-4-4-4-4-4-4-4-4-----4-4-4-4-4-4-4-4-4-4-4-4-----------------|
A-2-2-2-2-2-2-2-2-2-2-2-----2-2-2-2-2-2-2-2-2-2-2-2-----------------|
E-2-2-2-2-2-2-2-2-2-2-2-----2-2-2-2-2-2-2-2-2-2-2-2-----------------|
                      .                           .

[Guitar 2]
E----------------------------------------------------------------------|
B----------------------------------------------------------------------|
G----------------------------------------------------------------------|
D-2-2-2-2-2-2-2-2-2-2------2-2-2-2-2-2-2-2-2-2-2-2-2-------------------|
A-2-2-2-2-2-2-2-2-2-2------2-2-2-2-2-2-2-2-2-2-2-2-2-------------------|
E-2-2-2-2-2-2-2-2-2-2------2-2-2-2-2-2-2-2-2-2-2-2-2-------------------|


01:13

_/Guitar1\_
E---------------------------------------------------|
B---------------------------------------------------|
G---------------------------------------------------|
D-4-4-4-4-6-6-6-6-8-8-8-8-4-4-4-4-6-6-6-6-8-8-8-8---|
A-2-2-2-2-4-4-4-4-6-6-6-6-2-2-2-2-4-4-4-4-6-6-6-6---|
E-2-2-2-2-4-4-4-4-6-6-6-6-2-2-2-2-4-4-4-4-6-6-6-6---|


[Guitar 2]
E---------------------------------------------------|
B---------------------------------------------------|
G---------------------------------------------------|
D---------------------------------------------------|
A---------------------------------------------------|
E---------------------------------------------------|

01:19
_/Guitar 1\_
E-------------------------------------------------------------------|
B-------------------------------------------------------------------|
G-------------------------------------------------------------------|
D-4-4-4-4-4-4-4-4-4-4-4-----4-4-4-4-4-4-4-4-4-4-4-4-----------------|
A-2-2-2-2-2-2-2-2-2-2-2-----2-2-2-2-2-2-2-2-2-2-2-2-----------------|
E-2-2-2-2-2-2-2-2-2-2-2-----2-2-2-2-2-2-2-2-2-2-2-2-----------------|
                      .                           .

[Guitar 2]
E----------------------------------------------------------------------|
B----------------------------------------------------------------------|
G----------------------------------------------------------------------|
D-2-2-2-2-2-2-2-2-2-2------2-2-2-2-2-2-2-2-2-2-2-2-2-------------------|
A-2-2-2-2-2-2-2-2-2-2------2-2-2-2-2-2-2-2-2-2-2-2-2-------------------|
E-2-2-2-2-2-2-2-2-2-2------2-2-2-2-2-2-2-2-2-2-2-2-2-------------------|

01:23

_/Guitar1\_
E---------------------------------------------------|
B---------------------------------------------------|
G---------------------------------------------------|
D-4-4-4-4-6-6-6-6-8-8-8-8-4-4-4-4-6-6-6-6-8-8-8-8---|
A-2-2-2-2-4-4-4-4-6-6-6-6-2-2-2-2-4-4-4-4-6-6-6-6---|
E-2-2-2-2-4-4-4-4-6-6-6-6-2-2-2-2-4-4-4-4-6-6-6-6---|


[Guitar 2]
E---------------------------------------------------|
B---------------------------------------------------|
G---------------------------------------------------|
D---------------------------------------------------|
A---------------------------------------------------|
E---------------------------------------------------|


01:28

_/Guitar 1\_
E-----------------------------------------------------------|
B-----------------------------------------------------------|
G-----------------------------------------------------------|
D-4-4-4-4-4-4-4-8-8-8-8-8-8-8-8-8-6-6-6-6-6-6-6-6-----------|
A-2-2-2-2-2-2-2-6-6-6-6-6-6-6-6-6-4-4-4-4-4-4-4-4-----------|
E-2-2-2-2-2-2-2-6-6-6-6-6-6-6-6-6-4-4-4-4-4-4-4-4-----------| |
                                                             |
[Guitar 2]                                                   | 2x
E--------------------------------------------------------|    |
B--------------------------------------------------------|    |
G--------------------------------------------------------|
D-2~-------------6~----------------4~--------------------|
A-2~-------------6~----------------4~--------------------|
E-2~-------------6~----------------4~--------------------|


01:42

_/Guitar 1\_
E---------------------------------------------------------------------------|
B---------------------------------------------------------------------------|
G---------------------------------------------------------------------------|
D-8-8-8-8-8-8-8-8-8-8-6-6-6-6-6-6-6-6-6-6-4-4-4-4-4-4-4-4-4-4-2-2-2-2-2-2-2-|
A-6-6-6-6-6-6-6-6-6-6-4-4-4-4-4-4-4-4-4-4-2-2-2-2-2-2-2-2-2-2-2-2-2-2-2-2-2-|
E-6-6-6-6-6-6-6-6-6-6-4-4-4-4-4-4-4-4-4-4-2-2-2-2-2-2-2-2-2-2-0-0-0-0-0-0-0-|
    . . . . . . . . .   . . . . . . . . .   . . . . . . . . .   . . . . . .

                                        These 2x
_/Guitar 2\_
E-------------------------------------------------------------------------|
B-------------------------------------------------------------------------|
G-------------------------------------------------------------------------|
D--6-6-6-6-6-6-6-6-6--4-4-4-4-4-4-4-4--2-2-2-2-2-2-2-2--2-2-2-2-2-2-2-2-2-|
A--6-6-6-6-6-6-6-6-6--4-4-4-4-4-4-4-4--2-2-2-2-2-2-2-2--2-2-2-2-2-2-2-2-2-|
E--6-6-6-6-6-6-6-6-6--4-4-4-4-4-4-4-4--2-2-2-2-2-2-2-2--0-0-0-0-0-0-0-0-0-|
     . . . . . . . .    . . . . . . .    . . . . . . .    . . . . . . . .

"if I Had three Wishes, I'd Waste them all on you.."
"I'd Wish you away


02:16

 _/guitar 1\_
E---------------------------------------------------|
B---------------------------------------------------|
G---------------------------------------------------|
D---------------------------------------------------|
A-\\\\\\\\------------------------------------------|
E-\\\\\\\\------------------------------------------|

                     [Pick-Slides]
 [guitar 2]
E---------------------------------------------------|
B---------------------------------------------------|
G---------------------------------------------------|
D---------------------------------------------------|
A-\\\\\\\\------------------------------------------|
E-\\\\\\\\------------------------------------------|

02:17

  |     2x          |   |      2x        |  |     2x        |
E-14-0-12-0-11-0-12-0---12-0-10-0-9-0-10-0--10-0-8-0-7-0-8-0----11~---|
B---------------------------------------------------------------------|
G---------------------------------------------------------------------|
D---------------------------------------------------------------------|
A----------------------------------------------------------------- ---|
E----------------------------------------------------------------- ---|
                                                                    |
[Guitar 2]                                                          3x
E----------------------------------------------------------------|   |
B----------------------------------------------------------------|   |
G----------------------------------------------------------------|
D-6~--------------------4~-------------------2~------------------|
A-6~--------------------4~-------------------2~------------------|
E-6~--------------------4~-------------------2~------------------|

I'll probably have a video of me playing it soon.
Enjoy!
-Gil.
Добавлено: 24.02.2012
Другие материалы по этой песне:

Страница создана 24.02.2012
http://primanota.ru/hawthorne-heights/until-her-heart-stops-chords.htm
Привет, Гость.
Предлагаем пройти революционный курс по гитаре.
Подарок от PrimaNota.Ru, забирай!