PrimaNota.ru - самый крупный в мире бесплатный архив песенных текстов, аккордов, табулатур и нот


Hawthorne Heights - Silence In Black And White - таба, бас-таба, видео

Регистрация Запомнить меня
Войти через:  Facebook Google Twitter Vk Yandex Mail.ru

Hawthorne Heights - Silence In Black And White - таба, бас-таба, видео

Печатать
Просмотров: 64
Hawthorne Heights
The Silence in Black And White

1. Life on Standby
2. Dissolve and Decay
3. Niki FM
4. The Transition
5. Blue Burns Orange
6. Silver Bullet
7. Screenwriting an Apology
8. Ohio Is For Lovers
9. Wake up Call
10. Sandpaper and Silk
11. Speeding up The Octaves
12. Ohio Is For Lovers (Live Acoustic on Q101)
13. Silver Bullet (Acoustic)
14. Apparently Hover Boards Don't Work On Water



-----1. Life on Standby-----
E ------------|
B ------------|
G ------------| 7x
D -2-2-2------|
A -2-2-2------|
E -0-0-0------|


E ------------------------------------------|
B ------------------------------------------|
G ------------------------------------------| Strum
D -9--9---7--7------------------------------|             
A -9--9---7--7------------------------------|
E -7--7---5--5-------------------Pre-Verse--| 2x
  P2     P2                  
                            
E -------------|
B -------------|
G -------------| Let each chord
D -7-5-2----5--| ring out...pm,
A -7-5-2-------| then hit the harm.
E -5-3-0-------|


E -----------|---------|-------------------------------|
B ---------7-|---------|---------7-------------7-------|
G -------7---|-------7-|-----7-----7-------7-----7-----| 5x -Verse
D ---5-------|---5-----|---5---5-----5---5---5---------|
A -7---7-----|-7---7---|-7-------------7------------7--|
E -----------|---------|-------------------------------|

E -----------------------------|-----------|
B -----------------------------|-----------|
G -5-------9-----7-----5-----?-|--5-s-7----| 2x -Chorus
D -5-----2-9---2-7---2-5---2-?-|--5-s-7----|
A -3s5---2-7---2-5---2-3---2-2-|--3-s-5----|
E -------0-----0-----0-----0---|-----------|
        P3    P3    P3    P3


Back to Verse

Back to Chorus


E ------------------|
B ------------------|
G ---9---7---5---7--| 1x Bridge
D ---9---7---5---7--|
A ---7---5---3---5--|
E -0---0---0---0----|

E -------------------|
B -------------------|
G -5-5-5-5-----------| 6x Outro
D -3-3-3-3---2-2-2-2-|
A -3-3-3-3---2-2-2-2-|
E -----------0-0-0-0-|



-----2. Dissolve and Decay-----
E]---------------|
B]---------------|
G]---------------|
D]33333-----33333|
A]33333-----33333|
E]11111-----11111|


Clean
E]-(REPEAT 3 TIMES)-|--------------|
B]-----1--1--1--1-1-|----1--333333\|
G]---2--------------|--2-----------|
D]--0-0-------------|-0-0----------|
A]------------------|--------------|
E]------------------|--------------|


G1 Verse (part1)-medium dist.
E]--|---------------|
B]--|---------------|
G]--|---------------|
D]--|33333-----33333|
A]--|33333-----33333|
E]--|11111-----11111|
Pm...................

G2 verse (part1)-clean w/delay
E]--------------------------------------------------------|
B]------0------0----1--1--1--1-1----1--333333\------------|
G]-----5------5---2---------------2-----------------------|
D]---2------2----0-0-------------0-0----------------------|
A]-0------0-----------------------------------------------|
E]--------------------------------------------------------|


G1 verse (part 2)-medium Dist.-play twice
E]----------------------------------------|
B]----------------------------------------|
G]----------------------------------------|
D]7777777777777777777777771010101010101010|
A]7777777777777777777777771010101010101010|
E]5555555555555555555555558-8-8-8-8-8-8-8-|
Pm.........................................

E]--------------------------------|
B]--------------------------------|
G]--------------------------------|
D]33333333333333333333333333333333|
A]33333333333333333333333333333333|
E]11111111111111111111111111111111|

G2 verse (part2)-clean w/delay-play twice
E]-------0---------0--------------------------------------------|
B]------0-0-------0-0-----1--1--1--1-1----1--333333\------------|
G]-----5---------5------2---------------2-----------------------|
D]---2---------2-------0-0-------------0-0----------------------|
A]-0---------0--------------------------------------------------|
E]--------------------------------------------------------------|

G3 verse-clean/some effect
E]7--3--0-------------------------------------------------|
B]--------3-----------------------------------------------|
G]----------5/\-------------------------------------------|
D]--------------------------------------------------------|
A]--------------------------------------------------------|
D]--------------------------------------------------------|

G1 and G3
Prechorus-distortion
E]-------------|
B]-------------|
G]-------------|
D]7--------xxxx|
A]7--------xxxx|
E]5--------xxxx|
(Wow! That was hard!)

G2
Prechorus-dist
E](4 times)|
B]---------|
G]-----7-5-|I need some help on this one; its really hard
D]---5--5--|I tried using a program to slow it down but I'm
A]-05-5---5|still not sure.
E]---------|


G1 and G3
chorus-dist
E]-------------------------------------------------------------|
B]-------------------------------------------------------------|
G]-----5555555555555555----------------------------------------|
D]xxxx-333333333333333355555555555555557------7------7------7--|
A]xxxx-333333333333333355555555555555557------7------7------7--|
E]xxxx-----------------33333333333333335------5------5------5--|

G2
chorus-dist.
E]-------------------------------------------------------------|
B]----------------------------------------3-------3------3-----|
G]xxxx-5555555555555555-----------------2------2-------2-----2-|
D]xxxx-33333333333333335555555555555555--0-0----0--0----0-0---0|
A]xxxx-33333333333333335555555555555555------------------------|
E]---------------------3333333333333333------------------------|

G1
The second verse is the same as the first except for the first part:
E]----------------------|----------------|--|
B]----------------------|----------------|--|
G]----------------------|----------------|--|
D]------33-3-333-3-3333-|33-3-333-3-3333-|7~|
A]------33-3-333-3-3333-|33-3-333-3-3333-|7~|
E]12\---11-1-111-1-1111-|11-1-111-1-1111-|5~|

G2&G3 are the same for both verses

repeat prechorus
repeat chorus X2

G1
Interlude
E]-0~-----------------------------------------------------|
B]-0~-----------------------------------------------------|
G]-2~-----------------------------------------------------|
D]-2~-----------------------------------------------------|
A]-0------------------------------------------------------|
E]-0------------------------------------------------------|


G1 interlude (pt2)-dist.
E]--------------------------------------------------------|
B]--------------------------------------------------------|
G]-5545--5545--4424-4424--2202-2202--4424-4424------------|
D]--------------------------------------------------------|
A]--------------------------------------------------------|
E]--------------------------------------------------------|

G2 interlude (pt2)-dist.
E]-8878--8878--7757-7757--5535-5535--7757-7757------------|
B]--------------------------------------------------------|
G]--------------------------------------------------------|
D]--------------------------------------------------------|
A]--------------------------------------------------------|
E]--------------------------------------------------------|

G1&2 bridge-dist.
E]----------------------------|------------|--|
B]----------------------------|(play twice)|--|
G]----------------------------|------------|--|
D]-7757-2-7757-2-7757-2-7757-2|-7~-5~-3~-5~|7~|
A]-7757-2-7757-2-7757-2-7757-2|-7~-5~-3~-5~|7~|
E]-5535-0-5535-0-5535-0-5535-0|-5~-3~-1~-3~|5~|

G3 bridge
   dist.                       clean w/tremlo effect
E]----------------------------|--------------5-3--------------|--|
B]----------------------------|5-----------7----5-----------7-|--|
G]----------------------------|-5----54--57------5----54--57--|--|
D]-7757-2-7757-2-7757-2-7757-2|--7-57-------------7-57--------|7~|
A]-7757-2-7757-2-7757-2-7757-2|-------------------------------|7~|
E]-5535-0-5535-0-5535-0-5535-0|------(I need help here too)---|5~|

G1&3 bridge (pt2)-dist.
E]----------------|------------------|----------|
B]----------------|------------------|----------|
G]----------------|------------------|----------|
D]7---7---7~----33|--5555555555555555|7---7---7-|
A]7---7---7~----33|--5555555555555555|7---7---7-|
D]5---5---5~----11|--3333333333333333|5---5---5-|

G2 bridge(pt2)-dist.
E]--------|----------------------------|--------|--------
B](8times)|----------------------------|(3times)|--------
G]----7---|-------------999777710101010|----7---|--------
D]--5---5-|-------------xxxxxxxx x x x-|--5---5-|--5-xxxx
A]---5-5-5|33322225555--77755558 8 8 8-|---5-5-5|---5xxxx
E]53------|----------------------------|53------|53--xxxx

repeat chorus twice wtih this inbetween

E]-------|
B]-------|
G]-------|
D]777-555|
A]777-555|
E]555-333|

end on
E|-|
B|-|
G|-|
D|7|
A|7|
E|5|



-----3. Niki FM-----

I know there's lots of tabs out there but I put this one together and it sounds perfecto
Intro:
|-------------|     |-------------------|
|-------------|     |-------------------|
|--1-2-4-1-2--|x2   |----6-------2------|
|--2-4-6-2-4--|     |----6---2---2------|
|-------------|     |----4---2---0------|
|-------------|     |--------0----------|

Verse 1 (x3) :
|------------------------------------------|
|------------0-4-5-4------------0-4-5-4----|
|--6-6---6-6----------6-6---6-6------------|
|--6-6---6-6----------6-6---6-6------------|
|--4-4---4-4----------4-4---4-4------------|
|------------------------------------------|
   . .   . .          . .   . .

|---------------------------------------------|
|------------0-4-5-4------------0-4-5-4-------|
|--2-2---2-2----------2-2---2-2-------------4-|
|--2-2---2-2----------2-2---2-2-------------4-|„²don¡¦t play
|--0-0---0-0----------0-0---0-0-------------2-|	chord the
|---------------------------------------------|	3rd time thru
   . .   . .          . .   . .

Prechorus (x2) (listen for when to come in):
|-----9-0-7-0-----|
|--/5-------------|
|-----------------|
|-----------------|
|-----------------|
|-----------------|

Chorus (x1):
|-------------------|--------------------------------|
|-------------------|--------------------------------|
|----6-------2------|--6666--6666--64--2--4--2--4----|
|----6---2---2------|--6666--6666--64--2--4--2--4----|
|----4---2---0------|--4444--4444--42--0--2--0--2----|
|--------0----------|--------------------------------|

Verse 2 Part One (x2):
|------------------------------------------|
|------------0-4-5-4------------0-4-5-4----|
|--6-6---6-6----------6-6---6-6------------|
|--6-6---6-6----------6-6---6-6------------|
|--4-4---4-4----------4-4---4-4------------|
|------------------------------------------|
   . .   . .          . .   . .

|---------------------------------------------|
|------------0-4-5-4------------0-4-5-4-------|
|--2-2---2-2----------2-2---2-2-------------4-|
|--2-2---2-2----------2-2---2-2-------------4-|
|--0-0---0-0----------0-0---0-0-------------2-|
|---------------------------------------------|
   . .   . .          . .   . . 

Verse 2 Part Two (x1):
|------------0-4-5-4------------0-4-5-4----|
|------------0-4-5-4------------0-4-5-4----|
|--6-6---6-6----------6-6---6-6------------|
|--6-6---6-6----------6-6---6-6------------|
|--4-4---4-4----------4-4---4-4------------|
|------------------------------------------|
   . .   . .          . .   . .

|---------------------------------------------|
|---------------------------------------------|
|--2-2---2-2----------2-2---2-2-------------4-|
|--2-2---2-2----------2-2---2-2-------------4-|
|--0-0---0-0----------0-0---0-0-------------2-|
|---------------------------------------------|
   . .   . .          . .   . .


|------------0-4-5-4------------0-4-5-4----|
|------------0-4-5-4------------0-4-5-4----|
|--6-6---6-6----------6-6---6-6------------|
|--6-6---6-6----------6-6---6-6------------|
|--4-4---4-4----------4-4---4-4------------|
|------------------------------------------|
   . .   . .          . .   . .


|------------0-4-5-4------------0-4-5-4----|
|------------0-4-5-4------------0-4-5-4----|
|--2-2---2-2----------2-2---2-2------------|
|--2-2---2-2----------2-2---2-2------------|
|--0-0---0-0----------0-0---0-0------------|
|------------------------------------------|
   . .   . .          . .   . .

Prechorus (x1):
|-----------9-0-7-0----------------------|
|--9~\---/5----------------4-------------|
|-----------------------------------2----|
|------------------------6--------2------|
|----------------------4--------0--------|
|----------------------------------------|

Chorus:
|--------------------------------|-------------------|
|--------------------------------|-------------------|
|--6666--6666--64--2--4--2--4----|----6-------2------|
|--6666--6666--64--2--4--2--4----|----6---2---2------|
|--4444--4444--42--0--2--0--2----|----4---2---0------|
|--------------------------------|--------0----------|

|--------------------------------|
|--------------------------------|
|--6666--6666--64--2--4--2--4----|
|--6666--6666--64--2--4--2--4----|
|--4444--4444--42--0--2--0--2----|
|--------------------------------|

Bridge 1:
|-----------------------------|
|---22222244445555------------|
|-----------------22224444----|
|-----------------------------|
|-----------------------------|
|-----------------------------|

|------------------|
|------------------|
|--6--8--9---------| x2 this line only
|--6--8--9--7--9---|
|--4--6--7--7--9---|
|-----------5--7---|

Bridge 2 (x4):
|--------------------------------------------|
|--------------------------------------------|
|--6-6-------6-6---4-4---2-2-------4-4-------|
|--6-6-2-2---6-6-2-4-4-2-2-2-2-2---4-4-2-2---|
|--4-4-2-2---4-4-2-2-2-2-0-0-2-2---2-2-2-2---|
|------0-0-------0-----0-----0-0-------0-0---|
       . .       .     .     . .       . .

Outro (x3):
|--12--12--11--12--7--7-------------------|---0---|
|-----------------------------------------|---0---|
|-----9---9---9---9--6--6----8--9---8-----|---2---|
|----9---9---9---9--9--9--/9---9--9-------|---2---|
|-----------------------------------------|---0---|
|-----------------------------------------|---0---|



-----4. The Transition-----
Intro:
e|-----------------------------------------|
B|-----------------------------------------|
G|-------------9-6--xxx-4--xx-6--xxx-2---6-|
D|-------------9-6--xxx-4--xx-6--xxx-2---6-|
A|-------------7-4--xxx-2--xx-4--xxx-0---4-|
E|-5-4-0-7-5-0-----------------------------|
 Intro Lead:
e|-7-0--7-0---|--|-2-2-2-2-4--------------|
B|----------4-|--|------------5-4-0-5-4-0-|
G|------------|x3|------------------------|
D|------------|--|------------------------|
A|------------|--|------------------------|
E|------------|--|------------------------|


 Verse:
  "So Here We Are..."    "Hey, Rise And Shine..."
e|------------------|   |-----------------------------------------------------------------------|
B|------------------|   |-----------------------------------------------------------------------|
G|-4---6---6-4------|   |-6-6---------------6-6------4-4------6-6---------------6-6------4------|
D|-4---6---6-4------|   |-6-6(x14)-7-7------6-6(x14)-4-4(x14)-6-6(x14)-7-7------6-6(x14)-4(x16)-|
A|-2---4---4-2------|   |-4-4------7-7(x14)-4-4------2-2------4-4------7-7(x14)-4-4------2------|
E|------------------|   |---*------5-5--------*--------*--------*------5-5--------*-------------|
                                     *                                   *
 Verse Lead:
  "So Here We Are..."
e|------------------|
B|-5-4-0---5-4-0----|
G|------------------|x2
D|------------------|
A|------------------|
E|------------------|

 Chorus:
  "As Days Go By.."  "I'll Wait For You..."   "As Days Go By.."  "I Won't Let Go"
e|-----------|      |---------------------|  |-----------|      |---------------------|
B|-----------|      |---------------------|  |-----------|      |---------------------|
G|-----------|      |-6-xx--4-xx-2---xxxx-|  |-----------|      |-6-xx--4-xx-2---xxxx-|
D|-4---6---7-|      |-6-xx--4-xx-2---xxxx-|  |-4---6---7-|      |-6-xx--4-xx-2---xxxx-|
A|-4---6---7-|      |-4-xx--2-xx-0---xxxx-|  |-4---6---7-|      |-4-xx--2-xx-0---xxxx-|
E|-2---4---5-|      |---------------------|  |-2---4---5-|      |---------------------|

 Chorus Lead:
  "As Days Go By..."             "I'll Wait For You"    "As Days Go By..."             "I Won't Let Go"
e|-12-----12-------9-7-----0h7-||---------------------||-12-----12-------9-7---------||-9---11---12---|
B|----9------9-7-------5-------||---------------------||----9------9-7-------5---5p0-||---------------|
G|-----------------------------||-6-xx--4-xx-2---xxxx-||-----------------------------||---------------|
D|-----------------------------||-6-xx--4-xx-2---xxxx-||-----------------------------||---------------|
A|-----------------------------||-4-xx--2-xx-0---xxxx-||-----------------------------||---------------|
E|-----------------------------||---------------------||-----------------------------||---------------|

 Post-Chorus:
  "These Things Remain..."
e|-----------------------------------------------|
B|-----------------------------------------------|
G|-6-6---6-6---6-6---6-6---2-2---2-2---2-2---2-2-|
D|-6-6---6-6---6-6---6-6---2-2---2-2---2-2---2-2-|
A|-4-4---4-4---4-4---4-4---0-0---0-0---0-0---0-0-|
E|-----------------------------------------------|

 Post-Corus Lead:
  "These Things Remain.."
e|-----------7-----------------------7---|
B|-4-0-4-0-----5-4-0---4-0-4-0---4-0---5-|
G|---------------------------------------|x2
D|---------------------------------------|
A|---------------------------------------|
E|---------------------------------------|

 Break 1:
 "Please Don't Ever..."(Comes In With 2nd Part Of Lead)
e|----------|--|-------------|--|------------|
B|----------|--|-------------|--|------------|
G|-6-6------|x2|-4-/6-6------|--|-2-2------4-|
D|-6-6(x14)-|--|-4-/4-6(x14)-|x2|-2-2(x14)-4-|
A|-4-4------|--|-2-/4-4------|--|-0-0------2-|
E|---*------|--|------*------|--|---*--------|

 Break 1 Lead:
  "Please Don't ever..."           
e|-----7---|--|-4-------4-------4-------4-----|--|-7------7------7---------|--|-------|--|-4-0-2-|
B|-4-0---5-|--|---4-5-----4-5-----4-5-----4-0-|--|---5-4----5-4----5-4-0---|--|-7-0-4-|--|-------|
G|---------|x8|-------------------------------|x2|-----------------------1-|x2|-------|x4|-------|x4
D|---------|--|-------------------------------|--|-------------------------|--|-------|--|-------|
A|---------|--|-------------------------------|--|-------------------------|--|-------|--|-------|
E|---------|--|-------------------------------|--|-------------------------|--|-------|--|-------|

 Break 2:
  "Shine On..."
e|----------------------------------------------------------------|
B|----------------------------------------------------------------|
G|----------------------------------------------------------------|x3
D|-4-4--4-4-4-4-4--4-4--4-4-4-4-4--6-6--6-6-6-6-6--6-6--6-6-6-6-6-|
A|-4-4--4-4-4-4-4--4-4--4-4-4-4-4--6-6--6-6-6-6-6--6-6--6-6-6-6-6-|
E|-2-2--2-2-2-2-2--2-2--2-2-2-2-2--4-4--4-4-4-4-4--4-4--4-4-4-4-4-|
   * *  * * * * *  * *  * * * * *  * *  * * * * *  * *  * * * * *
 Break 2 Lead:
  "Shine On..."(Comes In On Rythm Guitar's 3rd Time)
e|-----------7-7-7----2-2-----|
B|-9b---9b---------9------4-4-|
G|----------------------------|
D|----------------------------|
A|----------------------------|
E|----------------------------|

 End:
  "As Days Go By..."
e|-------------------------|
B|-------------------------|
G|-------------------------|(Play Till Fadeout)
D|-4-4--6-6--7-7--9-9--4-4-|
A|-4-4--6-6--7-7--9-9--4-4-|
E|-2-2--4-4--5-5--7-7--2-2-|

 Song Order:
     Intro   
     Verse       
     Chorus 
     Post-Chorus
     Break 1
     Chorus
     Post-Chorus
     Break 1(Rythm  plays each chord only once, listen to the song and you'll see what I mean)
     Break 2 
     Chorus(Play 2nd half only)
     End



-----5. Blue Burns Orange Intro-----
Sorry I couldn't get the whole thing

rhythm guitar
e|------------------|
b|------------------|
g|------------------|
d|------------------|4x
a|-9---101010101010-|
e|-7---8-8-8-8-8-8--|

lead guitar
e|-------------------|
b|-------------------|
g|-----5-----5-4-3-4-|
d|-------------------|
a|-7--5--7--5--------|
e|-------------------|

rythm and lead together
e|-----------------|       |------------------|
b|-----------------|       |------------------|
g|-----------------|       |------------------|
d|-----------------|5x plus|------------------|
a|9---101010101010-|       |-9---10101010/810-|
e|7---8-8-8-8-8-8--|       |-7---8-8-8-8/6-8--|  00:35

e|---------------------|
b|---------------------|
g|---------------------|
d|-6-8-7--6-7-8--6-7-8-|
a|---------------------|
e|---------------------|00:44



-----6. Silver Bullet-----
e------------------|
b------------------|
g------------------|
d-6--66--666-2-----|
a-6--66--666-2-----|
E-4--44--444-0-----|
               x2
0.11
e---------------------|
b----3-4--3-4--444----|
g----4-6--4-6--666----|
d-6-----------------2-|
a-6-----------------2-|
E-4-----------------0-|
                      x2
0.22
e-----0---2---0--------0----2-|
b-4p0---0---0---0--4p0---0--0-|
g-----------------------------|
d-----------------------------|
a-----------------------------|
E-----------------------------|

verse:

0.28

e---------------------------------------------------------|
b---------------------------------------------------------|
g---------------------------------------------------------|
d-6666666---2222222---6666666---4444444---2222222---------|
a-6666666---2222222---6666666---4444444---2222222---------|
E-4444444---0000000---4444444---2222222---0000000---------|
pm.......   .......   .......   .......   .......
e--------------------------------------------------|
b--------------------------------------------------|
g--------------------------------------------------|
d-4444444---6666666---2222222----------------------|
a-4444444---6666666---2222222----------------------|
E-2222222---4444444---0000000----------------------|
pm.......   .......   .......

0.40

e---------------------------------------|
b---------------------------------------|
g---------------------------------------|
d-6666666---4444444---2222222---4444444-|
a-6666666---4444444---2222222---4444444-|
E-4444444---2222222---0000000---2222222-|

0.45 not sure about this

e-----------------|
b-----------------|
g-----------------|
d-66-666-------2~-|
a-66-666-------2~-|
E-44-444-slide-0~-|

0.50

e-----------------------------------------|
b--444-4--4-4-4-444-----------------------|
g--444-4--4-4-4-444-----------------------|
d--666-6--6-6-6-666-2---6-6-9-9-9-------2-|
a-------------------2---6-6-9-9-9-------2-|
E-------------------0---4-4-7-7-7-slide-0-|


1.02

e------------------------------|
b--444-4--4-4-4-4--------------|
g--444-4--4-4-4-4--------------|
d--666-6--6-6-6-6--4--666-444--|
a------------------4--666-444--|
E------------------2--444-222--|

chorus:

e------------------------------------------------|
b------------------------------------------------|
g------------------------------------------------|
d-2-2-99-88--44--66--44--2---99-88---444444444-2-|
a-2-2-99-99--44--66--44--2---99-99---444444444-2-|
E-0-0-77-77--22--44--22--0---77-77---222222222-0-|
pm                                   .. .  ..

e---------------------------------------|
b---------------------------------------|
g---------------------------------------|
d-2-2-99-88--44--66--44--2---99-88---4~-|
a-2-2-99-99--44--66--44--2---99-99---4~-|
E-0-0-77-77--22--44--22--0---77-77---2~-|

verse:

e---------------------------------------------------------|
b---------------------------------------------------------|
g---------------------------------------------------------|
d-6666666---2222222---6666666---4444444---2222222---------|
a-6666666---2222222---6666666---4444444---2222222---------|
E-4444444---0000000---4444444---2222222---0000000---------|
pm.......   .......   .......   .......    ......
e--------------------------------------------------|
b--------------------------------------------------|
g--------------------------------------------------|
d-4444444---6666666---2222222----------------------|
a-4444444---6666666---2222222----------------------|
E-2222222---4444444---0000000----------------------|
pm.......   .......   .......
e---------------------------------------|
b---------------------------------------|
g---------------------------------------|
d-6666666---4444444---2222222---4444444-|
a-6666666---4444444---2222222---4444444-|
E-4444444---2222222---0000000---2222222-|
pm.......   .......   .......   .......
not sure about this

e-----------------|
b-----------------|
g-----------------|
d-66-666-------2~-|
a-66-666-------2~-|
E-44-444-slide-0~-|

e-----------------------------------------|
b--444-4--4-4-4-444-----------------------|
g--444-4--4-4-4-444-----------------------|
d--666-6--6-6-6-666-2---6-6-9-9-9-------2-|
a-------------------2---6-6-9-9-9-------2-|
E-------------------0---4-4-7-7-7-slide-0-|

e------------------------------|
b--444-4--4-4-4-4--------------|
g--444-4--4-4-4-4--------------|
d--666-6--6-6-6-6--4--666-444--|
a------------------4--666-444--|
E------------------2--444-222--|

chorus:

e------------------------------------------------|
b------------------------------------------------|
g------------------------------------------------|
d-2-2-99-88--44--66--44--2---99-88---444444444-2-|
a-2-2-99-99--44--66--44--2---99-99---444444444-2-|
E-0-0-77-77--22--44--22--0---77-77---222222222-0-|
pm                                   .. .. ..

e---------------------------------------|
b---------------------------------------|
g---------------------------------------|
d-2-2-99-88--44--66--44--2---99-88---4~-|
a-2-2-99-99--44--66--44--2---99-99---4~-|
E-0-0-77-77--22--44--22--0---77-77---2~-|

  .  ..  staccato
e------------------|
b------------------|
g------------------|
d-6--66--666-2-----|
a-6--66--666-2-----|
E-4--44--444-0-----|
               x2
e---------------------------------------|
b----3-4--3-4--444-----3-4--3-4--444----|
g----4-6--4-6--666-----4-6--4-6--666----|
d-6-----------------2-----------------2-|
a-6-----------------2-----------------2-|
E-4-----------------0-----------------0-|
                                       x2 but the 2nd time
                                          dont play the 6 part
                                                        6
 2.49  not sure about this either but it sounds         4      good
e----------------------------------------------|
b----------------------------------------------|
g------------------999-999-999-999-------------|
d-999-999-999-999--999-999-999-999-------------|
a-999-999-999-999--777-777-777-777-------------|
E-777-777-777-777------------------------------|

e-------------------------------------------------------------|
b-------------------------------------------------------------|
g-11-11-11--11-11-11--11-11-11--11-11-11--13-13-13---13-13-13-|
d-x--x--x---x--x--x---x--x--x---x--x--x---x--x--x----x--x--x--|
a-9--9--9---9--9--9---9--9--9---9--9--9---11-11-11---11-11-11-|
E-------------------------------------------------------------|

e---------------------------------|
b---------------------------------|
g---------------------------------|
d-666-444--2-2--99-88--44--66--44-|
a-666-444--2-2--99-99--44--66--44-|
E-444-222--0-0--77-77--22--44--22-|
pm... ...
e------------------------------------------------|
b------------------------------------------------|
g------------------------------------------------|
d-2-2-99-88--444444444-2-2--99-88--44--66--44--2-|
a-2-2-99-99--444444444-2-2--99-99--44--66--44--2-|
E-0-0-77-77--222222222-0-0--77-77--22--44--22--0-|
pm           .. .. ..
e-------------------------|
b-------------------------|
g-------------------------|
d-99-88-4~----------------|
a-99-99-4~----------------|
E-77-77-2~pick scrape-----|

e---------------------------------|
b---------------------------------|
g---------------------------------|
d-666-444--2-2--99-88--44--66--44-|
a-666-444--2-2--99-99--44--66--44-|
E-444-222--0-0--77-77--22--44--22-|
pm... ...

e------------------------------------------------|
b------------------------------------------------|
g------------------------------------------------|
d-2-2-99-88--444444444-2-2--99-88--44--66--44--2-|
a-2-2-99-99--444444444-2-2--99-99--44--66--44--2-|
E-0-0-77-77--222222222-0-0--77-77--22--44--22--0-|
pm           .. .. ..

e-----------------------------|
b--------------3-4--4-4--444--|
g--------------4-6--3-6--666--|
d-99-88--4---4--------------2-|
a-99-99--4---4--------------2-|
e-77-77--2---6--------------0-|



-----7. Screenwriting An Apology-----
Intro/verse1 "she called last night..."
e--------------------------------------------------]
b----4----4----4----4------------------------------]
g------3---3----3----3--3/4-----4-----4-----4------]
d-------4----4----4---4----4-3----4-3---4-3---4-3--]repeat
a--------------------------------------------------]
e--------------------------------------------------]

I'll see you through the night...
e-------------------------------------]
b-------------------------------------]
g-8888--8888-8888---4444-4444--4444---]
d-xxxx--xxxx-xxxx---xxxx-xxxx--xxxx---]repeat
a-6666--6666-6666---2222-2222--2222---]
e-------------------------------------]

"you want me still because im breathing..."
e----------------------------------------------]
b----------------------------------------------]
g-4444--4444--4444----8888--8888--8888---------]
d-4444--4444--4444----8888--8888--8888---------]
a-2222--2222--2222----6666--6666--6666---------]
e----------------------------------------------]


e----------------------------]
b----------------------------]
g-88--x--4--44--6------------]
d-88--x--4--44--6------------]repeat
a-66--x--2--22--4------------]
e----------------------------]


lets exchange the sunshine...

e--------------------------------------------------]
b--------------------------------------------------]
g-8-8888--8--8888-6-6666-4-4444-6-6666-4-6-8-------]
d-8-8888--8--8888-6-6666-4-4444-6-6666-4-6-8-------]repeat
a-6-6666--6--6666-4-4444-2-2222-4-4444-2-4-6-------]
e--------------------------------------------------]
    ....     ....   ....   ....   .... 


"you know..."
e----------------------------]
b----------------------------]
g-88--x--4--44--6------------]
d-88--x--4--44--6------------]repeat
a-66--x--2--22--4------------]
e----------------------------]

"scene  missing fade to black..."
e----------------------------------]
b----------------------------------]
g-88888--44444--66666--------------]
d-88888--44444--66666--------------]repeat
a-66666--22222--44444--------------]
e----------------------------------]

"Just wake me when its over..."
e--------------------------------------------------]
b--------------------------------------------------]
g-8-8888--8--8888-6-6666-4-4444-6-6666-4-6-8-------]
d-8-8888--8--8888-6-6666-4-4444-6-6666-4-6-8-------]repeat
a-6-6666--6--6666-4-4444-2-2222-4-4444-2-4-6-------]
e--------------------------------------------------]
    ....     ....   ....   ....   .... 

"the one that got away..."
e------------------------------------------]
b---------[YOU KNOW ME TOO WELL]-----------]
g-44444------88-x-4--44-6------------------]
d-44444------88-x-4--44-6------------------]REPEAT SECOND PART
a-22222------66-x-2--22-4------------------]"you know me too well w/o
e------------------------------------------]distortion


"Again!"
e------------------------------------------------]
b------------------------------------------------]
g-6--8888-8888-8888-4444-4444-4444---------------]
d-6--8888-8888-8888-4444-4444-4444---------------]repeat
a-4--6666-6666-6666-2222-2222-2222---------------]
e------------------------------------------------]

chorus
"you want me still because im breathing..."
e----------------------------------------------]
b----------------------------------------------]
g-4444--4444--4444----8888--8888--8888---------]
d-4444--4444--4444----8888--8888--8888---------]
a-2222--2222--2222----6666--6666--6666---------]
e----------------------------------------------]


"you know..."
e----------------------------]
b----------------------------]
g-88--x--4--44--6------------]
d-88--x--4--44--6------------]repeat
a-66--x--2--22--4------------]
e----------------------------]

"shes sorry and i can tell..."
e----------------------------------]
b----------------------------------]
g-88888--44444--66666--------------]
d-88888--44444--66666--------------]repeat
a-66666--22222--44444--------------]
e----------------------------------]

ending
e-----------------]
b-----------------]
g-8-8-8-8-8~------]
d-8-8-8-8-8~------]
a-6-6-6-6-6~------]
e-----------------]



-----8. Ohio Is For Lovers-----
INTRO:

Guitar 1:
e|--------------------------|
b|--------------------------|
g|--------------------------|
d|-----------4----------4---| x2
a|----2----2---------2---2--|
e|-4---4----------2---------|
                                         x4
e|--------------------------|
b|--------------------------|
g|--------------------------|
d|-----------4----------4---| x2
a|----2----2---------2---2--|
e|-0-----0---------2--------|

Guitar 2: (Comes in at 0:23)
e|-------------------------------------------------|
b|-------------------------------------------------|
g|-----8-----6-----8-----6--6p4--4-------6--6p4--4-|
d|-4/6---4/6---4/6---4/6------------4/6------------| x2
a|-------------------------------------------------|
e|-------------------------------------------------|

Guitar 3: (comes in at 0:11)
e|------------------------------------------------------------------|
b|------------------------------------------------------------------|
g|------------------------------------------------------------------|
d|-6666666666664444666666666666444422222222222244442222222222224444-| x3
a|-6666666666664444666666666666444422222222222244442222222222224444-|
e|-4444444444442222444444444444222200000000000022220000000000002222-|
   ................................................................

PRE CHORUS 1: (0:45)

Guitar 1:
e|-------------------------------------------------------------------------------|
b|-------------------------------------------------------------------------------|
g|-----------666688889999--------------------------666688889999------------------|
d|-2-4-66----xxxxxxxxxxxx---22222222222222--44-66--xxxxxxxxxxxx---22222222222222-|
a|-2-4-66----444466667777---22222222222222--44-66--444466667777---22222222222222-|
e|-0-2-44-------------------00000000000000--22-44-----------------00000000000000-|
   .
Guitar 2:
e|-----------------------------------------------------------------------------------------|
b|-----------------------------------------------------------------------------------------|
g|------------------------------------------------131313131515151516161616-----------------|
d|-2-4-66-------------------22222222222222--44-66--x-x-x-x-x-x-x-x-x-x-x-x--22222222222222-|
a|-2-4-66-------------------22222222222222--44-66-111111111313131314141414--22222222222222-|
e|-0-2-44-------------------00000000000000--22-44---------------------------00000000000000-|
   .
Guitar 3: (The ending of this was difficult to make out....it sounds good when you play it though.)
e|--------------------------------------------------------------------------9-7-5-7~---7\0-|
b|-----------------------------------------------------------------------------------------|
g|-----------------------------------------------------------------------------------------|
d|-2-4-66-------------------22222222222222--44-66------------------------------------------|
a|-2-4-66-------------------22222222222222--44-66------------------------------------------|
e|-0-2-44-------------------00000000000000--22-44------------------------------------------|

CHORUS 1: (0:56)

Guitar 1:
e|--------------------------------------------------------------------|
b|--------------------------------------------------------------------|
g|------------------------------------------666688889999--------------|
d|-9/2--66666666-6-4-22-222222222222-2-4-66-xxxxxxxxxxxx-222222222222-|
a|-x----66666666-6-4-22-222222222222-2-4-66-444466667777-222222222222-|
e|-7/0--44444444-4-2-00-000000000000-0-2-44--------------000000000000-|
                        ............ .
Guitar 2:
e|--------------------------------------------------------------------------------|
b|--------------------------------------------------------------------------------|
g|---------------------------------------66-131313131515151516161616--------------|
d|------66666666-6-4-22-222222222222-2-4-66--x-x-x-x-x-x-x-x-x-x-x-x-222222222222-|
a|------66666666-6-4-22-222222222222-2-4-66-111111111313131314141414-222222222222-|
e|------44444444-4-2-00-000000000000-0-2-44--------------------------000000000000-|
                        ............ .
Guitar 3: (at the end of this..the 9-7-5-7~---7\0 part is the part im not sure about)
e|------------------------------------------------------9-7-5-7~---7\0-|
b|---------------------------------------------------------------------|
g|---------------------------------------------------------------------|
d|------66666666-6-4-22-222222222222-2-4--66666666-6-4-----------------|
a|------66666666-6-4-22-222222222222-2-4--66666666-6-4-----------------|
e|------44444444-4-2-00-000000000000-0-2--44444444-4-2-----------------|
                        ............ .
Guitars 1, 2, 3:
e|-------------------------------------------------------------|
b|-------------------------------------------------------------|
g|-------------------------------------------------------------|
d|-2-4--2-xx-4-xx--66-66-22-4-66-66-22-4-22-22-22-4-22-22-22-4-|
a|-2-4--2-xx-4-xx--66-66-22-4-66-66-22-4-22-22-22-4-22-22-22-4-|
e|-0-2--0-xx-2-xx--44-44-00-2-44-44-00-2-00-00-00-2-00-00-00-2-|
                         ..         ..         ..         ..

VERSE 2: (1:22)

Guitar 1:
e|------------------------------------------------------------------|
b|------------------------------------------------------------------|
g|------------------------------------------------------------------|
d|-6666666666664444666666666666444422222222222244442222222222224444-| x2
a|-6666666666664444666666666666444422222222222244442222222222224444-|
e|-4444444444442222444444444444222200000000000022220000000000002222-|
   ................................................................

Guitar 2: (Comes in at 1:33)
e|------------------------------------------|
b|------------------------------------------|
g|-6/888--66666/888--66666\\444--66666\\444-|
d|-x/xxx--xxxxx/xxx--xxxxx\\xxx--xxxxx\\xxx-|
a|-4/666--44444/666--44444\\222--44444\\222-|
e|------------------------------------------|

Guitar 3:
e|----------------------------------------------------------------------------------------------
b|----------------------------------------------------------------------------------------------
g|-131313131313131315151515151515151616161616161613131313131313131515151515151515161616161616161
d|--x-x-x-x-x-x-x-x-x-x-x-x-x-x-x-x-x-x-x-x-x-x-x-x-x-x-x-x-x-x-x-x-x-x-x-x-x-x-x-x-x-x-x-x-x-x-
a|-111111111111111113131313131313131414141414141411111111111111111313131313131313141414141414141
e|----------------------------------------------------------------------------------------------
   .............................................................................................

----------------------------------|
----------------------------------|
611111111111111111515151513131313-|
x-x-x-x-x-x-x-x-x-x-x-x-x-x-x-x-x-|
4-9-9-9-9-9-9-9-91313131311111111-|
----------------------------------|
.................................

PRE CHORUS 2: (1:45)

Guitar 1:
e|-------------------------------------------------------------------------------|
b|-------------------------------------------------------------------------------|
g|-----------666688889999--------------------------666688889999------------------|
d|-2-4-66----xxxxxxxxxxxx---22222222222222--44-66--xxxxxxxxxxxx---22222222222222-|
a|-2-4-66----444466667777---22222222222222--44-66--444466667777---22222222222222-|
e|-0-2-44-------------------00000000000000--22-44-----------------00000000000000-|
   .
Guitar 2:
e|-----------------------------------------------------------------------------------------|
b|-----------------------------------------------------------------------------------------|
g|------------------------------------------------131313131515151516161616-----------------|
d|-2-4-66-------------------22222222222222--44-66--x-x-x-x-x-x-x-x-x-x-x-x--22222222222222-|
a|-2-4-66-------------------22222222222222--44-66-111111111313131314141414--22222222222222-|
e|-0-2-44-------------------00000000000000--22-44---------------------------00000000000000-|
   .
Guitar 3:
e|--------------------------------------------------------------------------9-7-5-7~---7\0-|
b|-----------------------------------------------------------------------------------------|
g|-----------------------------------------------------------------------------------------|
d|-2-4-66-------------------22222222222222--44-66------------------------------------------|
a|-2-4-66-------------------22222222222222--44-66------------------------------------------|
e|-0-2-44-------------------00000000000000--22-44------------------------------------------|
   .

CHORUS 2: (1:55)

Guitar 1:
e|--------------------------------------------------------------------|
b|--------------------------------------------------------------------|
g|------------------------------------------666688889999--------------|
d|-9/2--66666666-6-4-22-222222222222-2-4-66-xxxxxxxxxxxx-222222222222-|
a|-x----66666666-6-4-22-222222222222-2-4-66-444466667777-222222222222-|
e|-7/0--44444444-4-2-00-000000000000-0-2-44--------------000000000000-|
                        ............ .
Guitar 2:
e|--------------------------------------------------------------------------------|
b|--------------------------------------------------------------------------------|
g|---------------------------------------66-131313131515151516161616--------------|
d|------66666666-6-4-22-222222222222-2-4-66--x-x-x-x-x-x-x-x-x-x-x-x-222222222222-|
a|------66666666-6-4-22-222222222222-2-4-66-111111111313131314141414-222222222222-|
e|------44444444-4-2-00-000000000000-0-2-44--------------------------000000000000-|
                        ............ .
Guitar 3:
e|------------------------------------------------------9-7-5-7~---7\0-|
b|---------------------------------------------------------------------|
g|---------------------------------------------------------------------|
d|------66666666-6-4-22-222222222222-2-4--66666666-6-4-----------------|
a|------66666666-6-4-22-222222222222-2-4--66666666-6-4-----------------|
e|------44444444-4-2-00-000000000000-0-2--44444444-4-2-----------------|
                        ............ .
Guitars 1, 2, 3:
e|-------------------------------------------------------------|
b|-------------------------------------------------------------|
g|-------------------------------------------------------------|
d|-2-4--2-xx-4-xx--66-66-22-4-66-66-22-4-22-22-22-4-22-22-22-4-|
a|-2-4--2-xx-4-xx--66-66-22-4-66-66-22-4-22-22-22-4-22-22-22-4-|
e|-0-2--0-xx-2-xx--44-44-00-2-44-44-00-2-00-00-00-2-00-00-00-2-|
                         ..         ..         ..         ..
Guitars 1, 2:
e|---------------------------------------------|
b|---------------------------------------------|
g|---------------------------------------------|
d|-66-66-22-4-66-66-22-4-22-22-22-4-22-22-22-4-|
a|-66-66-22-4-66-66-22-4-22-22-22-4-22-22-22-4-|
e|-44-44-00-2-44-44-00-2-00-00-00-2-00-00-00-2-|
         ..         ..         ..         ..

Guitar 3:
e|-7p6-7p6---7p6---7p6---7p6--9---7p6-7p6---7p6---7p6---7p6--9---7p6-7p6-|
b|---------------7--------------7---------------7--------------7---------|
g|-----------------------------------------------------------------------|
d|-----------------------------------------------------------------------|
a|-----------------------------------------------------------------------|
e|-----------------------------------------------------------------------|

BRIDGE: (2:33)

Guitar 1:
e|------------------------------------------------|
b|------------------------------------------------|
g|--------4-----------4---------------4---------4-|
d|--------4-----------4---------------4---------4-| x2
a|------------------------------------------------|
e|-2---4-----2----4----------2----0-------2--0----|

PRE CHORUS 3: (2:54)

Guitar 1:
e|-------------------------------------------------------------------------------|
b|-------------------------------------------------------------------------------|
g|-----------666688889999--------------------------666688889999------------------|
d|-2-4-66----xxxxxxxxxxxx---22222222222222--44-66--xxxxxxxxxxxx---22222222222222-|
a|-2-4-66----444466667777---22222222222222--44-66--444466667777---22222222222222-|
e|-0-2-44-------------------00000000000000--22-44-----------------00000000000000-|
   .
Guitar 2:
e|-----------------------------------------------------------------------------------------|
b|-----------------------------------------------------------------------------------------|
g|------------------------------------------------131313131515151516161616-----------------|
d|-2-4-66-------------------22222222222222--44-66--x-x-x-x-x-x-x-x-x-x-x-x--22222222222222-|
a|-2-4-66-------------------22222222222222--44-66-111111111313131314141414--22222222222222-|
e|-0-2-44-------------------00000000000000--22-44---------------------------00000000000000-|
   .
Guitar 3:
e|--------------------------------------------------------------------------9-7-5-7~---7\0-|
b|-----------------------------------------------------------------------------------------|
g|-----------------------------------------------------------------------------------------|
d|-2-4-66-------------------22222222222222--44-66------------------------------------------|
a|-2-4-66-------------------22222222222222--44-66------------------------------------------|
e|-0-2-44-------------------00000000000000--22-44------------------------------------------|
   .
CHORUS 3: (3:06)

Guitar 1:
e|--------------------------------------------------------------------|
b|--------------------------------------------------------------------|
g|------------------------------------------666688889999--------------|
d|-9/2--66666666-6-4-22-222222222222-2-4-66-xxxxxxxxxxxx-222222222222-|
a|-x----66666666-6-4-22-222222222222-2-4-66-444466667777-222222222222-|
e|-7/0--44444444-4-2-00-000000000000-0-2-44--------------000000000000-|
                        ............ .
Guitar 2:
e|--------------------------------------------------------------------------------|
b|--------------------------------------------------------------------------------|
g|---------------------------------------66-131313131515151516161616--------------|
d|------66666666-6-4-22-222222222222-2-4-66--x-x-x-x-x-x-x-x-x-x-x-x-222222222222-|
a|------66666666-6-4-22-222222222222-2-4-66-111111111313131314141414-222222222222-|
e|------44444444-4-2-00-000000000000-0-2-44--------------------------000000000000-|
                        ............ .
Guitar 3:
e|------------------------------------------------------9-7-5-7~---7\0-|
b|---------------------------------------------------------------------|
g|---------------------------------------------------------------------|
d|------66666666-6-4-22-222222222222-2-4--66666666-6-4-----------------|
a|------66666666-6-4-22-222222222222-2-4--66666666-6-4-----------------|
e|------44444444-4-2-00-000000000000-0-2--44444444-4-2-----------------|
                        ............ .
Guitars 1, 2, 3:
e|-------------------------------------------------------------|
b|-------------------------------------------------------------|
g|-------------------------------------------------------------|
d|-2-4--2-xx-4-xx--66-66-22-4-66-66-22-4-22-22-22-4-22-22-22-4-|
a|-2-4--2-xx-4-xx--66-66-22-4-66-66-22-4-22-22-22-4-22-22-22-4-|
e|-0-2--0-xx-2-xx--44-44-00-2-44-44-00-2-00-00-00-2-00-00-00-2-|
                         ..         ..         ..         ..
Guitars 1, 2:
e|---------------------------------------------|
b|---------------------------------------------|
g|---------------------------------------------|
d|-66-66-22-4-66-66-22-4-22-22-22-4-22-22-22-4-| keep playing till fade.
a|-66-66-22-4-66-66-22-4-22-22-22-4-22-22-22-4-|
e|-44-44-00-2-44-44-00-2-00-00-00-2-00-00-00-2-|
         ..         ..         ..         ..
Guitar 3:
e|-7p6-7p6---7p6---7p6---7p6--9---7p6-7p6---7p6---7p6---7p6--9---7p6-7p6-|
b|---------------7--------------7---------------7--------------7---------|
g|-----------------------------------------------------------------------|
d|-----------------------------------------------------------------------| keep playing till fade.
a|-----------------------------------------------------------------------|
e|-----------------------------------------------------------------------|



-----9. Wake Up Call-----
Guitar one intro..i showed where guitar one and two play together.



                         1st|---4-4-----|
                         2nd|-4-----4-0-||------5---|
                         3rd|-----------||--------4-| (x2)
                         4th|-----------||4-6-7-----|

  Guitar 2 intro

4th|-6~~xx|  |-------------------------\-----------------------|
5th|-4~~xx|  |-7-7--10-10--7~-6-4-6-4-7~\---------7~---------7~| (x2)
6th|------|  |---------------------------\9-7-9-7----7-5-7-5---|


Verse:
e|-------------------------------------------------------------------------|
b|-------------------------------------------------------------------------|
g|-------------------------------------------------------------------------|
d|-6xxxxxx-6p4-6-6-4p2-4-4-2-2-4xxxxxx-2xxxxxx-99--------------------------|
a|-4xxxxxx---------------------2xxxxxx-0xxxxxx-77--------------------------|
e|-------------------------------------------------------------------------|


e|-------------------------------------------------------------------------|
b|-------------------------------------------------------------------------|
g|-------------------------------------------------------------------------|
d|-6xxxxxx-6p4-6-6-4p2-4-4-2-2-4xxxxxx-2xxxxxx-----------------------------|
a|-4xxxxxx---------------------2xxxxxx-0xxxxxx-----------------------------|
e|-------------------------------------------------------------------------|

Pre-Chorus:
e|-------------------------------------------------------------------------|
b|-------------------------------------------------------------------------|
g|-------------------------------------------------------------------------|
d|-4~-444-6~-666-7~-777-9~-999---------------------------------------------|
a|-x--xxx-x--xxx-x--xxx-x--xxx---------------------------------------------|
e|-2~-222-4~-444-5~-555-7~-777---------------------------------------------|


e|-------------------------------------------------------------------------|
b|-------------------------------------------------------------------------|
g|-------------------------------------------------------------------------|
d|-4~-444-6~-666-7~-777-9~-------------------------------------------------|
a|-x--xxx-x--xxx-x--xxx-x--------------------------------------------------|
e|-2~-222-4~-444-5~-555-7~-------------------------------------------------|

Chorus:
e|-------------------------------------------------------------------------|
b|----4h5-4-------4h5-4-----------------------4h5-4-------4h5-4------------|
g|----------4-----------4----------6-4-2-4-6--------4-----------4----------|
d|-6-----------4------------2-2222-6-4-2-4-6-----------4-----------2-44444-|
a|-4-----------2------------0-0000-4-2-0-2-4-----------2-----------0-22222-|
e|-------------------------------------------------------------------------|


e|-------------------------------------------------------------------|
b|----4h5-4-------4h5-4-----------------------4h5-4-------4h5-4------|
g|----------4-----------4----------6-4-2-4-6--------4-----------4----|
d|-6-----------4------------2-2222-6-4-2-4-6-----------4-----------2-|
a|-4-----------2------------0-0000-4-2-0-2-4-----------2-----------0-|
e|-------------------------------------------------------------------|

Verse:
e|-------------------------------------------------------------------------|
b|-------------------------------------------------------------------------|
g|-------------------------------------------------------------------------|
d|-6xxxxxx-6p4-6-6-4p2-4-4-2-2-4xxxxxx-2xxxxxx-99--------------------------|
a|-4xxxxxx---------------------2xxxxxx-0xxxxxx-77--------------------------|
e|-------------------------------------------------------------------------|


e|-------------------------------------------------------------------------|
b|-------------------------------------------------------------------------|
g|-------------------------------------------------------------------------|
d|-6xxxxxx-6p4-6-6-4p2-4-4-2-2-4xxxxxx-2xxxxxx-----------------------------|
a|-4xxxxxx---------------------2xxxxxx-0xxxxxx-----------------------------|
e|-------------------------------------------------------------------------|

Pre-Chorus:
e|-------------------------------------------------------------------------|
b|-------------------------------------------------------------------------|
g|-------------------------------------------------------------------------|
d|-4~-444-6~-666-7~-777-9~-999---------------------------------------------|
a|-x--xxx-x--xxx-x--xxx-x--xxx---------------------------------------------|
e|-2~-222-4~-444-5~-555-7~-777---------------------------------------------|

Chorus:
e|-------------------------------------------------------------------------|
b|----4h5-4-------4h5-4-----------------------4h5-4-------4h5-4------------|
g|----------4-----------4----------6-4-2-4-6--------4-----------4----------|
d|-6-----------4------------2-2222-6-4-2-4-6-----------4-----------2-44444-|
a|-4-----------2------------0-0000-4-2-0-2-4-----------2-----------0-22222-|
e|-------------------------------------------------------------------------|


e|-------------------------------------------------------------------|
b|----4h5-4-------4h5-4-----------------------4h5-4-------4h5-4------|
g|----------4-----------4----------6-4-2-4-6--------4-----------4----|
d|-6-----------4------------2-2222-6-4-2-4-6-----------4-----------2-|
a|-4-----------2------------0-0000-4-2-0-2-4-----------2-----------0-|
e|-------------------------------------------------------------------|

 Then it slows down........and builds up
e|---------------------------------------|
b|12----12----9-12-11-12-----------------|
g|10-10-10-10---10-9--10-----------------|
d|-------------------------2-2-2-2-2-2-2-|
a|-------------------------4-4-4-4-4-4-4-|
e|---------------------------------------|

  "wake me up..from this nightmare......"

e|-------------------------------------------------------------------------|
b|-------------------------------------------------------------------------|
g|-------------------------------------------------------------------------|
d|-66666666-44444444-66666666-22222222-66666666-44444444-66666666-44444444-|
a|-44444444-22222222-44444444-00000000-44444444-22222222-44444444-22222222-|
e|-------------------------------------------------------------------------|

e|------------------|                    e|---------------|
b|------------------|                    b|---------------|
g|------------------| (x7) and end with..g|---------------|
d|-44-44-44-4-4-4-4-|                    d|-4-4~~4-4~~----|
a|-66-66-66-6-6-6-6-|                    a|-6-6~~6-6~~----|
e|------------------|                    e|---------------|

And the outro is the chorus...
e|-------------------------------------------------------------------------|
b|----4h5-4-------4h5-4-----------------------4h5-4-------4h5-4------------|
g|----------4-----------4----------6-4-2-4-6--------4-----------4----------|
d|-6-----------4------------2-2222-6-4-2-4-6-----------4-----------2-44444-|
a|-4-----------2------------0-0000-4-2-0-2-4-----------2-----------0-22222-|
e|-------------------------------------------------------------------------|

e|---------------------------------------------------------------------------|
b|----4h5-4-------4h5-4-----------------------4h5-4-------4h5-4--------------|
g|----------4-----------4----------6-4-2-4-6--------4-----------4------------|
d|-6-----------4------------2-2222-6-4-2-4-6-----------4-----------2-44444-6-|
a|-4-----------2------------0-0000-4-2-0-2-4-----------2-----------0-22222-4-|
e|---------------------------------------------------------------------------|



-----10. Sandpaper And Silk-----
This site told me it didn't like intros so. . . . I've tabbed the song from the rocky bit
0:08s Full Distortion.
e|---------------------|
B|---------------------|
G|-----------6---------|
D|-----7-----6---------|Play twice. Listen to the song for timing.
A|-----7-----4---------|
E|-----5---------------|

Verse 1. The timing has to be perfect so listen to the song.
0:26s Clean tone with a bit of distortion.
e|----------------------------------------------------|
B|--------6-----6-----6-----6-----0-----0-----0-------|
G|-------6-----6-----6-----6-----2-----2-----2--------|Play Twice
D|------6-----------6-----------2-----------2---------|
A|-----4-----4-----4-----4-----0-----0-----0-----0----|
E|----------------------------------------------------|

Pre chorus.
0:49s Clean tone with a bit of distortion.
e|---------------------------------------------------------------------------|
B|------9--7-7-7-7-----9--7-7-7-7-----5--4-4-4-4-----5--4-4-4-4--------------|
G|---------------------------------------------------------------------------|
D|---------------------------------------------------------------------------|
A|---------------------------------------------------------------------------|
E|---------------------------------------------------------------------------|
0:54s Chorus. Full distortion.
e|------------------------------------------------------------|
B|------------------------------------------------------------|
G|----------------4----------6--------------------------------|
D|-----7----------4----------6--------------------------------|
A|-----7----------2----------4--------------------------------|
E|-----5------------------------------------------------------|

1:01s Verse 2. Clean tone with a bit of distortion.
e|-----------------------------------------------------------|
B|--------6-----6-----6-----6-----0-----0-----0--------------|
G|-------6-----6-----6-----6-----2-----2-----2---------------|
D|------6-----------6-----------2-----------2----------------|Play Twice
A|-----4-----4-----4-----4-----0-----0-----0-----0-----------|
E|-----------------------------------------------------------|

1:24s Pre chorus. Clean tone with a bit of distortion.
e|---------------------------------------------------------------------------|
B|------9--7-7-7-7-----9--7-7-7-7-----5--4-4-4-4-----5--4-4-4-4--------------|
G|---------------------------------------------------------------------------|
D|---------------------------------------------------------------------------|
A|---------------------------------------------------------------------------|
E|---------------------------------------------------------------------------|

1:30s Chorus. Full Distortion. Listen to the song for timing.
This chorus is different, you play it twice and second, when you get to the third power 
you can play the chord or play the solo bit above it.
e|----------------------------------------------------------------------------------------|
B|------------------------------7/9--7-7-7-7-----9--7-7-7-7-----5--4-4-4-4-----5--4-4-4-4-|
G|----------------4----------6------------------------------------------------------------|
D|-----7----------4----------6------------------------------------------------------------|
A|-----7----------2----------4------------------------------------------------------------|
E|-----5----------------------------------------------------------------------------------|

1:48s Bridge. Clean tone. Add distortion for effect.
Listen to the song for timing.
e|--------------------------------------------0----------------|
B|---------------------------------------------0---------------|
G|-----6-----4-----------4--------6-----4-------2--------------|
D|-----6-----4-----7-----4--------6-----4--------2-------------|
A|-----4-----2-----7-----2--------4-----2---------0------------|
E|-----------------5-------------------------------*-----------|

2:00s Still bridge.
e|-----------------------------------------------------------------------------0-------|
B|-----2---5-4-2-----0--5-4-2-----0--2-4-2-4-2-0-----2--5-4-2-----0--5-4-2------0------|
G|-------------------------------------------------------------------------------2-----|
D|--------------------------------------------------------------------------------2----|
A|---------------------------------------------------------------------------------0---|
E|----------------------------------------------------------------------------------*--|
2:12s Interlude. Full Distortion. Listen to the song for timing.
e|------------------------------------------------------------------------|
B|------------------------------------------------------------------------|
G|-----6-----6-6---------6-----6-6---------6-----6-6--------6-------------|
D|-----6-----6-6---------6-----6-6---------6-----6-6--------6-LET-RING----|
A|-----4-----4-4---------4-----4-4---------4-----4-4--------4-------------|
E|------------------------------------------------------------------------|
2:37s Chorus. Full Distortion. Listen to the song for timing. Play three times, but on 
third time when you get to the third power chord play the outro.
e|----------------------------------------------------------------------------------------|
B|------------------------------7/9--7-7-7-7-----9--7-7-7-7-----5--4-4-4-4-----5--4-4-4-4-|
G|----------------4----------6------------------------------------------------------------|
D|-----7----------4----------6------------------------------------------------------------|
A|-----7----------2----------4------------------------------------------------------------|
E|-----5----------------------------------------------------------------------------------|
3:06s Outro. Full Distortion.
e|---------------------------------------|
B|---------------------------------------|
G|-----6-*-*-*---6-*-*-*-----------------|
D|-----6-*-*-*---6-*-*-*---7-------------|
A|-----4-*-*-*---4-*-*-*---7--LET-RING---|
E|-------------------------5-------------|



-----11. Speeding Up The Octaves Intro-----
Sorry I couldn't get the rest

e--0-------------0----------------------------|
b----0--1----0-----0--1----0-------0----------|
g----------2-------------2----0--2------0-----|
D-------------------------------------4---2---|
A---------------------------------------------|
E---------------------------------------------|



-----12. Ohio Is For Lovers (Live Acoustic On Q101)-----
---------------|
---------------|
---------------|
-4------4------|x2
-2-x5---2-x4---|
-4------2------|

then                   >x4

---------------|
---------------|
---------------|
-4------4------| x2
-2-x5---2-x4---|
-0------2------|

end with
----
----
----
-4--
-2--
-0--
strummed a few times

Verse

--------------------------------------------------|
--------------------------------------------------|
-----------4-----/---6-----/--8-------------------|
-4---6-----6-x4--/---8-x2--/--9--x2------4--4-----|
-4-/-6-----------------------------------2--2-----|
-2---4-----------------------------------0--2-----|

(figure out strumming of the last two chords with the song)

--------------------------------------------------|
--------------------------------------------------|
-----------4-----/---6-----/--8-------------------|
-4---6-----6-x4--/---8-x2--/--9--x2------4--------|
-4-/-6-----------------------------------2--------|
-2---4-----------------------------------0----7\0-|

------------------------|
------------------------|
------------------------|
-4-----4-----4----------|
-2-x8--2-x3--2-x12------|
-4-----2-----0----------|
             *

--------------------------------------------------|
--------------------------------------------------|
-----------4-----/---6-----/--8-------------------|
-4---6-----6-x4--/---8-x2--/--9--x2------4--4-----|
-4-/-6-----------------------------------2--2-----|
-2---4-----------------------------------0--2-----|


Chorus

--------------------------------------------------|
--------------------------------------------------|
--------------------------------------------------|
-4--xx--4--xx--44--x--44-x4-44--44--x--44--x4-44--|
-2--xx--2--xx--22--x--22-x2-22--22--x--22--x2-22--|
-0--xx--2--xx--44--x--44-x2-22--44--x--44--x2-22--|
                          *                 *

------------------|
------------------|
------------------|
-44--x--44-x4-44--|  x2
-22--x--22-x2-22--|
-00--x--00-x2-22--|
            *

-----------------|
-----------------|
-----------------|
-4-------4-------|x2
-2-x14---2-x8----|
-4-------2-------|
 *       *

then                   >x2

------------------|
------------------|
------------------|
-4-------4--------| x2
-2-x14---2-x8-----|
-0-------2--------|
 *       *


Verse

--------------------------------------------------|
--------------------------------------------------|
-----------4-----/---6-----/--8-------------------|
-4---6-----6-x4--/---8-x2--/--9--x2------4--4-----|
-4-/-6-----------------------------------2--2-----|
-2---4-----------------------------------0--2-----|

(figure out strumming of the last two chords with the song)

--------------------------------------------------|
--------------------------------------------------|
-----------4-----/---6-----/--8-------------------|
-4---6-----6-x4--/---8-x2--/--9--x2------4--------|
-4-/-6-----------------------------------2--------|
-2---4-----------------------------------0----7\0-|

------------------------|
------------------------|
------------------------|
-4-----4-----4----------|
-2-x8--2-x3--2-x12------|
-4-----2-----0----------|
             *

--------------------------------------------------|
--------------------------------------------------|
-----------4-----/---6-----/--8-------------------|
-4---6-----6-x4--/---8-x2--/--9--x2------4--4-----|
-4-/-6-----------------------------------2--2-----|
-2---4-----------------------------------0--2-----|

Chorus

--------------------------------------------------|
--------------------------------------------------|
--------------------------------------------------|
-4--xx--4--xx--44--x--44-x4-44--44--x--44--x4-44--|
-2--xx--2--xx--22--x--22-x2-22--22--x--22--x2-22--|
-0--xx--2--xx--44--x--44-x2-22--44--x--44--x2-22--|
                          *                 *

------------------|
------------------|
------------------|
-44--x--44-x4-44--|  x2
-22--x--22-x2-22--|
-00--x--00-x2-22--|
            *

-------------------|
-------------------|
-------------------|
-44--x--44--x4-44--| x2
-22--x--22--x2-22--|
-44--x--44--x2-22--|
             *

------------------|
------------------|
------------------|
-44--x--44-x4-44--|  x2
-22--x--22-x2-22--|
-00--x--00-x2-22--|
            *


Outro

-----------------|
-----------------|
-----------------|
------4----4-----| x2
--2-2-2---2-2----|
-4-4--4--2-------|
                      >x2

-----------------|
-----------------|
-----------------|
------4----4-----| x2
--2-2-2---2-2----|
-0-0--0--2-------|

End with strumming

---
---
---
-4-
-2-
-0- a few times

Verse

--------------------------------------------------|
--------------------------------------------------|
-----------4-----/---6-----/--8-------------------|
-4---6-----6-x4--/---8-x2--/--9--x2------4--4-----|
-4-/-6-----------------------------------2--2-----|
-2---4-----------------------------------0--2-----|

(figure out strumming of the last two chords with the song)

--------------------------------------------------|
--------------------------------------------------|
-----------4-----/---6-----/--8-------------------|
-4---6-----6-x4--/---8-x2--/--9--x2------4--------|
-4-/-6-----------------------------------2--------|
-2---4-----------------------------------0----7\0-|

------------------------|
------------------------|
------------------------|
-4-----4-----4----------|
-2-x8--2-x3--2-x12------|
-4-----2-----0----------|
             *

--------------------------------------------------|
--------------------------------------------------|
-----------4-----/---6-----/--8-------------------|
-4---6-----6-x4--/---8-x2--/--9--x2------4--4-----|
-4-/-6-----------------------------------2--2-----|
-2---4-----------------------------------0--2-----|


Chorus

--------------------------------------------------|
--------------------------------------------------|
--------------------------------------------------|
-4--xx--4--xx--44--x--44-x4-44--44--x--44--x4-44--|
-2--xx--2--xx--22--x--22-x2-22--22--x--22--x2-22--|
-0--xx--2--xx--44--x--44-x2-22--44--x--44--x2-22--|
                          *                 *

------------------|
------------------|
------------------|
-44--x--44-x4-44--|  x2
-22--x--22-x2-22--|
-00--x--00-x2-22--|
            *

-------------------|
-------------------|
-------------------|
-44--x--44--x4-44--| x2
-22--x--22--x2-22--|
-44--x--44--x2-22--|
             *

------------------|
------------------|
------------------|
-44--x--44-x4-44--|  x2
-22--x--22-x2-22--|
-00--x--00-x2-22--|



-----13. Silver Bullet (Acoustic)-----
Chords used:
   G#m  E   F#  B
e-|-4---0---2---x---|
bm|-4---0---2---4---|
G-|-4---1---3---4---|
D-|-6---2---4---4---|
A-|-6---2---4---2---|
E-|-4---0---2---x---|

There's a little piano part in the pre-chorus, I just play
something like this to imitate it while still strumming:

    G#m*                E
e-|-4---4---------------0---|
bm|-4---4---------------0---|
G-|-4---4--6-6-6-6h8\---1---|
D-|-6---6--6-6-6-6-6----2---|
A-|-6---6--6-6-6-6-6----2---|
E-|-4---4---------------0---|
look for the "G#m*   E" for when to play it.  You don't have
to though, sounds almost as good just playing a normal G#m.


:Intro:

G#m    E

G#m    E

G#m                           E
    Tonight, we fly away so high
G#m                       E
    Our first full moon sky

:break:
e-|--------------------------------------|
bm|----------------------7----9----12~---|
G-|-8----9----11----9----8----9----11~---|
D-|---9----9-----9----9----9----9--9~~---|
A-|--------------------------------------|
E-|--------------------------------------|

:verse:
  G#m
  I'll breathe you in,
  E
  I won't let you down,
  G#m
  I won't hold your back,
  F#
  I won't make a sound.
  E      F#                         G#m        E
  I know what scared you the most.
  G#m
  Being Alone,
  F#
  Just like them,
  E
  Being Alive,
  F#        G#m*  E
  Feeling so...   DEAD.
  G#m                        E
  At least you'll have my... HEART.

  G#m*                       E

  G#m                   F#
  You know you shine so bright.

:chorus:
E       B             F#
  Got a single Silver Bullet
  G#m        F#        E
  Shot right through my heart.
  B                 F#
  To prove I can survive, Without you.

E       B             F#
  Got a single Silver Bullet,
  G#m        F#        E
  Shot right through my heart.
  B                 F#
  To prove I can survive...

:verse:
G#m        E

G#m        F#        E      F#

  G#m
  Can you sleep at night,
  E
  If I hold you tight.
  G#m
  I won't let you go,
  F#
  This feels so right.

E        F#                  G#m*              E
  Please don't leave this... TIME.

  G#m                        E
  At least you'll have my... HEART.

  G#m*                       E

  G#m                     F#
  You know you shine sooo bright.

:chorus:
E       B             F#
  Got a single Silver Bullet
  G#m        F#        E
  Shot right through my heart.
  B                 F#
  To prove I can survive, Without you.

E       B             F#
  Got a single Silver Bullet,
  G#m        F#        E
  Shot right through my heart.
  B                 F#
  To prove I can survive...

:interlude:
  G#m                     E
  Tonight, we fly away so high,

  Tonight, We fly away.
G#m
  You know the moon is full and,
E
  I can't live without you.
G#m
  Tonight we'll fly away
E
  Tonight, tonight...
G#m
  Tonight we'll fly away
F#
  Tonight...

:chorus:  (Finger pick first part)
E       B             F#
  Got a single Silver Bullet
  G#m        F#        E
  Shot right through my heart.
  B                 F#
  To prove I can survive, Without you.

E       B             F#
  Got a single Silver Bullet,
  G#m        F#        E
  Shot right through my heart.
  B                 F#
  To prove I can survive...

G#m   F#   E

B     F#

G#m   F#   E

B     F#

E     B    F#

G#m   F#   E

B     F#

G#m



-----14. Apparently Hover Boards Don't Work On Water-----
e|-------------------------|
b|-------------------------|
g|-------------------------|x 4
d|----5-----2h3-2---3h5----|
a|------3---------3-----3--|
E|--5-----1----------------|

e|-----x-x-----|
b|-----x-x-----|
g|-5---x-x-----|x4
d|-5-3-x-x-7-5-|
a|-3-3-x-x-7-5-|
E|---1-x-x-5-3-|


e|----------------------------------------------------|
b|----------------------------------------------------|
g|-------------------------------55h7p-44h5p4-22h42-0-|
d|-5-5h7p5-3-3h5p3-3-2-2h3p2-2-0-55h7p-33h5p3-22h32-0-|
a|----------------------------------------------------|
E|----------------------------------------------------|


e|-----------------------------------------------------------|
b|-----------------------------------------------------------|
g|-----------------------------------------------------------|x2
d|-------5-----5-------5------5--------3-3-3-2-------0-0-0-2-|
a|---------------------------------------------3-3-3---------|
E|-5-5-5---5-5---5-5-5---5-5----1-1-1------------------------|


e|-----------------------------------|
b|-----------------------------------|
g|-5-7-5-4-2-0-0-0-5-7-4-5-5-2-------|
d|-5-5-5-5-2-0-0-2-5-5-5-5-7-2-------|
a|-----------------------------3-5-7-|
E|-----------------------------------|

e|----------------------------------------------------|
b|----------------------------------------------------|
g|-------------------------------55h7p-44h5p4-22h42-0-|
d|-5-5h7p5-3-3h5p3-3-2-2h3p2-2-0-55h7p-33h5p3-22h32-0-|
a|----------------------------------------------------|
E|----------------------------------------------------|


e|-----------------------------------------------|
b|-----------------------------------------------|
g|-5-7-5-5----5-7-5-5----------------5-5-5---5---|
d|-5--------5-5-------5-33-55-777-55-5-------5-5-|
a|----------------------33-55-777-55-------------|
E|----------------------11-33-555-33-------------|


e|----------------------------------|
b|----------------------------------|
g|--------------5-8-5-5---5-8-5-5---|
d|-33-55-777-55-5-------5-5-------5-|
a|-33-55-777-55---------------------|
E|-11-33-555-33---------------------|


e|----------------------------------------------|
b|----------------------------------------------|
g|-------------5-8-5-5---5-8-5-5----------------|
d|-33-55-777-8-5-------5-5-------5-33-33-777-55-|
a|-33-55-777-8---------------------33-33-777-55-|
E|-11-33-555-6---------------------11-55-555-33-|

bass comes in...................
then play this

e|----------------------------------------------------|
b|----------------------------------------------------|
g|-------------------------------55h7p-44h5p4-22h42-0-|
d|-5-5h7p5-3-3h5p3-3-2-2h3p2-2-0-55h7p-33h5p3-22h32-0-|
a|----------------------------------------------------|
E|----------------------------------------------------|


Outro:

Just play the begining again


e|-----x-x-----|
b|-----x-x-----|
g|-5---x-x-----|x4
d|-5-3-x-x-7-5-|
a|-3-3-x-x-7-5-|
E|---1-x-x-5-3-|
Добавлено: 19.06.2013
Другие материалы по этой песне:
  • Аккорды и текст

Страница создана 19.06.2013
http://primanota.ru/hawthorne-heights/silence-in-black-and-white-chords.htm
Привет, Гость.
Предлагаем пройти революционный курс по гитаре.
Подарок от PrimaNota.Ru, забирай!