PrimaNota.ru - самый крупный в мире бесплатный архив песенных текстов, аккордов, табулатур и нот


Hawthorne Heights - Nikki Fm - таба, бас-таба, видео

Регистрация Запомнить меня
Войти через:  Facebook Google Twitter Vk Yandex Mail.ru

Hawthorne Heights - Nikki Fm - таба, бас-таба, видео

Печатать
Просмотров: 112
Intro
e|--------------------|
B|--------------------|
G|--------------------|
D|---5--7--9---5--7---|
A|---7--9--11--7--9---|
E|--------------------|



Verse
e|---------------|
B|---------------|
G|---xx6-----2---|
D|---xx6--2--2---|
A|---xx4--2--0---|
E|--------0------|

e|----------0--------------------0------------|
B|---------4-4------------------4-4-----------|
G|--66-66-4---4--(x2)---22-22--4---4--(x2)--4-|  x3
D|--66-66---------------22-22---------------4-|
A|--44-44---------------00-00---------------2-|
E|--------------------------------------------|

Riff 1
e-----------------|
B|--------4-------|
G|------------2---|  x2
D|-------6---2----|
A|------4---0-----|
E|----------------|

e|-----------|
B|-----------|
G|--6-----2--|
D|--6--2--2--|
A|--4--2--0--|
E|-----0-----|

Chorus

|------------------------------------|
|------------------------------------|
|--6666--6666--x4--2~--4~--2~--4~----|  x1
|--4444--4444--x4--2~--4~--2~--4~----|
|--4444--4444--x2--0~--2~--0~--2~----|
|------------------------------------|


Verse

|----------0--------------0--------------0--------------0-------|
|---------4-4------------4-4------------4-4------------4-4------|
|66--66--4---4--66--66--4---4--22--22--4---4--22--22--4---4--4~-|  x2
|44--44---------44--44---------22--22---------22--22---------4~-|
|44--44---------44--44---------00--00---------00--00---------2~-|
|---------------------------------------------------------------|

|----------0--------------0-------------------------------------|
|---------4-4------------4-4------------------------------------|
|66--66--4---4--66--66--4---4--22--22---------22--22---------4~-|  x1
|44--44---------44--44---------22--22---------22--22---------2~-|
|44--44---------44--44---------00--00---------00--00---------2~-|
|---------------------------------------------------------------|

|----------0--------------0--------------0--------------0-------|
|---------4-4------------4-4------------4-4------------4-4------| 
|66--66--4---4--66--66--4---4--22--22--4---4--22--22--4---4--4~-|  x1
|44--44---------44--44---------22--22---------22--22---------2~-|
|44--44---------44--44---------00--00---------00--00---------2~-|
|---------------------------------------------------------------|
Riff 1
e-----------------|
B|--------4-------|
G|------------2---|  x2
D|-------6---2----|
A|------4---0-----|
E|----------------|

e|-----------|
B|-----------|
G|--6-----2--|
D|--6--2--2--|
A|--4--2--0--|
E|-----0-----|

Chorus

|---------------------------------|
|---------------------------------|
|--6666--6666--x4--2~--4~--2~--4~-|  x1
|--4444--4444--x4--2~--4~--2~--4~-|
|--4444--4444--x2--0~--2~--0~--2~-|
|---------------------------------|

Fill

|-----------|
|-----------|
|--6-----2~-|  x1
|--4--0--2~-|
|--4--2--0~-|
|-----2-----|

Chorus

|---------------------------------|
|---------------------------------|
|--6666--6666--x4--2~--4~--2~--4~-|  x1
|--6666--6666--x2--2~--2~--2~--2~-|
|--4444--4444--x2--0~--2~--0~--2~-|
|---------------------------------|

Bridge

|-------------------------|
|-------------------------| 
|--9~---11--13--9~---11---|  x2
|--x~----x---x--x~----x---|
|--7~----9--11--7~----9---|
|-------------------------|

Breakdown

|------------------------------|
|------------------------------|
|--66-----66x-44x-22-----66----|  x4
|--66-22--66x-44x-22-22--66-22-|
|--44-22--44x-22x-00-22--44-22-|
|-----00-------------00-----00-|

Sorry I'm Trying to find the Outro to this song…Will Update Soon though
Добавлено: 30.06.2012
Другие материалы по этой песне:

Страница создана 09.03.2012
http://primanota.ru/hawthorne-heights/nikki-fm-chords.htm
Привет, Гость.
Предлагаем пройти революционный курс по гитаре.
Подарок от PrimaNota.Ru, забирай!